Guitar Chords » J »Joan Sebastian » Eso y más (Tab)

Eso y más
Joan Sebastian

Lyrics, Chords & Tabs for Guitar, Bass & Ukulele

  •        A
    Me contaron de Romeo y Julieta y pense
    
    que hermoso cuento
                                 D
    y ahora resulta que es mas grande mas bello esto
                          A
    esto que por ti yo siento.
    
                 D
    Cruzaré los montes, los ríos, los valles,
                  A
    por irte a encontrar
                 D
    salvaría tormentas, ciclones, dragones
            A
    sin exagerar.
    
                 D                   E
    Por poder mirarme en tus ojos bonitos
    
  •        A
    Me contaron de Romeo y Julieta y pense
    
    que hermoso cuento
                                 D
    y ahora resulta que es mas grande mas bello esto
                          A
    esto que por ti yo siento.
    
                 D
    Cruzaré los montes, los ríos, los valles,
                      A
    por irte a encontrar
                 D
    salvaría tormentas, ciclones, dragones
            A
    sin exagerar.
    
                 D                   E
    Por poder mirarme en tus ojos bonitos
    
  • e|--0------2--------2-0h2-----------|--0------2------1-2------|
    B|--0/2-2--3------3-------3-0----2--|--0/2-2--3------3-2--2---|
    G|---------2----2-------------2--2--|---------2----2------2---|
    D|---------0--4------------------2--|---------0--4--------2---|
    A|-------------------------------0--|---------------------0---|
    E|----------------------------------|-------------------------|
    
    
    Este es el segundo
    
    Primera parte:                            Segunda Parte
    
    e|--0------2--------2----5------------|--0------2------1-2--------|
    B|--0/2-2--3------3----5---5-3/2-0h2--|--0/2-2--3------3-2--2-----|
    G|---------2----2---------------------|---------2----2------2-----|
    D|---------0--4-----------------------|---------0--4--------2-----|
    A|------------------------------------|---------------------0-----|
    E|------------------------------------|---------------------------|
    
    
    
  • |------0-----0------2---------------2---0--------------0----|
    |------0/2---0------3------------3---------2----0------2----|
    |-------------------2--------22--------------------2---2----|
    |------------------------------------------------------2----|
    |------------------------------------------------------0----|
    |-----------------------------------------------------------|
    
    
    
    
    |------0-----0------2---------------------0------|
    |------0/2---0------3------------7--------2------|
    |-------------------2------------7---6----2------|
    |----------------------------77-----------2------|
    |-----------------------------------------0------|
    |------------------------------------------------|
    
    
    Arpegiado
    
    
  • e|---0-----0------2-------------5----5----------------------|
    B|---0/2---0------3--------3----5/7--5---5--3--2--0/2-------|
    G|----------------2------2---------------6--4--2--2---------|
    D|---------------------4--------------------------2---------|
    A|----------------------------------------------------------|
    E|----------------------------------------------------------|
    
    e|---0-----0------2--------2-0---0-----|
    B|---0/2---0------3--------3-----2-----|
    G|----------------2------2-------2-----|
    D|---------------------4---------2-----|
    A|-------------------------------0-----|
    E|-------------------------------------|
    
    
           A
    Me contaron de Romeo y Julieta y pense
    
    que hermoso cuento
                                 D
    
  •                      D                          A
    e|-0---0---2-----------0h1p0----------0---0---0---2--|
    B|-0h2-0---3--------3--------0h2--0---2---0h2-0---3--|
    G|---------2------2-------------------2-----------2--|
    D|---------0----4---------------------2-----------0--|
    A|---------------------------------------------------|
    E|---------------------------------------------------|
    
    e|-------------0------------------|
    B|------3--2---2------------------|
    G|----2--------2------------------|
    D|--4----------2------------------|
    A|------------------4-2-0---0-2-0-|
    E|------------------------2-------|
    
                 D
    Cruzaré los montes, los ríos, los valles,
                  A
    por irte a encontrar         D|------------------------|
                                 A|--2/42--0--2--0---------|
    
  • +
    ¡Colabora con nosotros!
    Envíanos tu versión de esta canción
  • Tutorial
    como tocar eso y mas en guitarra para principiantes Fácil
    7:23
  • Tutorial
    Como tocar - Eso y mas de Joan Sebastian - Tutorial Guitarra (HD)
    6:22

Eso y más Lyrics
Me contaron de Romeo y Julieta y pense
que hermoso cuento
y ahora resulta que es mas grande mas bello esto
esto que por ti yo siento.
Cruzaré los montes, los ríos, los valles,
por irte a encontrar
salvaría tormentas, ciclones, dragones
sin exagerar.
Por poder mirarme en tus ojos bonitos
y vivir la gloria de estar a tu lado
porque en mí ya siento que te necesito
que me he enamorado.
Por poder mirarme en tus ojos bonitos
y vivir la gloria de estar a tu lado
porque en mí ya siento que te necesito
eso y más haré.
Por asegurar la sonrisa de tu alma
buscando equidad,
yo podría empeñar lo más caro que tengo
que es mi libertad.
y sería un honor ay amor ser tu esclavo
sería tu juguete por mi voluntad
y si un día glorioso en tus brazos acabo
Qué felicidad.
Si sería un honor ay amor ser tu esclavo
sería tu juguete por mi voluntad
y si un día glorioso en tus brazos acabo
qué felicidad.




[Eso y más acordes][Eso y más cifra]
© LaCuerda.net · legal notice · privacy · es · en · pt · contact us
DINAMICO