GuitarraViva aterriza en LaCuerda
Jarabe de Palo
La Flaca
                en la vida conocí
|----------10b12r10--|
|-7b8r7--5-----------|
|-7b8r7--5-----------|
|--------------------|
|--------------------|
|--------------------|

tremendisima mulata
|----------------|
|----------------|
|-12b14r12--10-9~|
|----------------|
|----------------|
|----------------|

que sin palabras hablan
|-----------|
|-----------|
|-12b14r12--|
|-----------|
|-----------|
|-----------|

que sin palabras hablan
|-----------|---------------------|
|-----------|---------------------|
|-10p9------|-5--7b8r7--5---------|
|------10s7-|-5--7b8r7--5-5h7p5---|
|-----------|-------------------7-|
|-----------|---------------------|

baja a bailar a la tasca
|-----------|
|-----------|
|-12b14r12--|
|-----------|
|-----------|
|-----------|

pero ella nunca engorda
|------10b12~~10-8-8h10--8----------------------------|
|8-10---------------------10--10p8----8s10-10-8s10-10-|
|----------------------------------9--9s11-11-9s11-11-|
|-----------------------------------------------------|
|-----------------------------------------------------|
|-----------------------------------------------------|

....por un beso...daria lo que fuera
|------------------------------12----------|
|-8h10--10/12-12---10-12-12/14----14/12-10-|
|------------------------------------------|
|------------------------------------------|
|------------------------------------------|
|------------------------------------------|

por un beso de ella aun que solo uno fuera
|-14p12---------------------|
|-------14-12-14-14/17--12--|
|---------------------------|
|---------------------------|
|---------------------------|
|---------------------------|

aun que solo uno fuera...
|----------------15b17r15--------|
|-15b17r15-13-15-----------13h15-|
|--------------------------------|
|--------------------------------|
|--------------------------------|
|--------------------------------|

aun que solo uno fuera.
|---------------------|
|---------------------|
|-5--7b8r7--5---------|
|-5--7b8r7--5-5h7p5---|
|-------------------7-|
|---------------------|

esta flaca a mi me tiene loquito
|-------------------------|
|-------------------------|
|-12p10-------------------|
|------12-12p10----12-10~-|
|--------------12---------|
|-------------------------|

a mi me tiene loquito
|---7-----8----8/10--8-5~-|
|-5----5-----5------------|
|-------------------------|
|-------------------------|
|-------------------------|
|-------------------------|


aun que solo uno fuera
|-----------------------15-|
|-15b17-15b17-15b17--15~---|
|--------------------------|
|--------------------------|
|--------------------------|
|--------------------------|
This file is the work if its transcriptor and it represents his/her own interpretation of the song. This material is intended for PERSONAL USE ONLY. It is strictly forbiden to copy, reproduce or retransmit the contents of this website. Legal actions will be taken if required.
© LaCuerda.net · legal notice · privacy · es · en · pt · contact us