Guitar Chords » J »Jarabe de Palo » la Flaca (Tab)

la Flaca
Jarabe de Palo

Lyrics, Chords & Tabs for Guitar, Bass & Ukulele

  • Am E  D  C  E   Am E
    
    Am             E                    D
    En la vida conocí mujer igual a la flaca
                         C          E          Am
    coral negro de La Habana,tremendísima mulata
                            E                       D
    cien libras de piel y hueso,cuarenta kilos de salsa
                     C         E                F  F#  G
    y en la cara dos soles que sin palabras hablan
                       Am      E
    que sin palabras hablan
    
    Am                   E                            D
    La flaca duerme de día,dice que así al hambre engaña
                         C         E         Am
    cuando cae la noche baja a bailar a la tasca
                       E            D
    Y bailar y bailar  y tomar y tomar
                        C          E            F F# G
    
  • Am E D C E
    Am E
    
    Am               E                   D
      En la vida conocí mujer igual a la flaca
                        C          E        Am
    coral negro de La Habana,tremendísima mulata
                          E                       D
    cien libras de piel y hueso,cuarenta kilos de salsa
                     C         E            F      G
    y en la cara dos soles que sin palabras hablan
                     Am      E
    que sin palabras hablan
    
    Am                   E                            D
      La flaca duerme de día,dice que así al hambre engaña
                  C            E           Am
    cuando cae la noche baja a bailar a la tasca
                  E                D
    Y bailar y bailar  y tomar y tomar
    
  •   E7       F#      F      Am       G       D       D7      C     SIm7b5
     (MI7)   (FA#)    (FA)   (LAm)    (SOL)   (RE)   (RE7)   (DO)   (Bm7b5)
    
    
    Intro:
    
      (e)-|-------|-----------------|
      (B)-|-------|-----------------|
      (G)-|-------|-----------------|
      (D)-|-------|-2-2-2-2-2-2-2-2-|
      (A)-|-------|-0-0-0-0-0-0-0-0-|
      (E)-|-0-3-0-|-----------------|
    
    -----------------|-----------------|----------|
    -----------------|-----------------|----------|
    -----------7-6-5-|---5-5-5-5-5-5-5-|---10---9-|
    -----------6-5-4-|---4-4-4-4-4-4-4-|---10---9-|
    -7-7-7-7-7-7-6-5-|---5-5-5-5-5-5-5-|---8 ---7-|
    -0-0-0-0-0-------|-----------------|-0--------|
    
    
  •               Am               E                
    e:---------|-----------------------------------|
    B:---------|-----------------------------------|
    G:---------|------------------------------7-6--|
    D:---------|-(7-7)7-7(7-7)7-7-(6-6-6-6)6--6-5--|
    A:--2-2-2--|-(7-7)7-7(7-7)7-7-(7-7-7-7)7--7-6--|
    E:--0-3-0--|--5-5-5-5-5-5-5-5--0-0-0-0-0-------|
       
       D
    |--------------------------------|
    |--------------------------------|
    |--5-(5-5-5-5-5)5---5-4----------|
    |--4-(4-4-4-4-4)4---3-2----------|
    |--5--5-5-5-5-5-5-0--0--0-2-2-2--|
    |-------------------------0-3-0--|
    
      Am               E    
    --------------------------------------|-10b12-10b12-| 
    --------------------------------------|-------------|
    ------------------------------7b8r7-5-|-------------|
    
  • |----------10b12r10--|
    |-7b8r7--5-----------|
    |-7b8r7--5-----------|
    |--------------------|
    |--------------------|
    |--------------------|
    
    tremendisima mulata
    |----------------|
    |----------------|
    |-12b14r12--10-9~|
    |----------------|
    |----------------|
    |----------------|
    
    que sin palabras hablan
    |-----------|
    |-----------|
    |-12b14r12--|
    |-----------|
    
  • Intro: /Am /E7 /D7 /(D7A)(C#G#)/Am /E7 /
    
    
                  Am               E7
    e:---------I------------------I------------------|
    B:---------I------------------I------------------|
    G:---------I------------------I---7-7-7-7-7-6-5--|
    D:---------I--7-7-7-7-7-7-7-7-I---6-6-6-6-6-5-4--|
    A:--2-2-2--I--0-0-0-0-0-0-0-0-I---7-7-7-7-7-6-5--|
    E:--0-3-0--I------------------I-x-0-0-0-0-0------|
    
       D7
    |-----------------I-----------------|
    |-----------------I-----------------|
    |--5--5-5-5-5-5---I---5---4---------|
    |--4--4-4-4-4-4---I---3---2---------|
    |--5--5-5-5-5-5---I-----------------|
    |---------------0-I-5---4----0-3-0--|
    
      Am               E7
    
  • LA FLACA
    JARABE DE PALO
    
    En la vida conoci…
    1a.
    ----------------------------------------------
    ----------------------------------------9-----
    ----------5--7-------7--5---------10—5-7------
    --5----8---------7---------55---78---------87-
    
    
    Cien libras de piel…
    2a.
    ----------------------------------------------
    ----------------------------------------------
    ----------5--7-------7--5----------10—--------
    --5----8---------7---------55---78------7-----
    
    
    …que sin palabras habla…
    3a.
    ----------------------------------------------
    ----------------------------------------------
    --------------------------------7777777--5----
    --11111223-------0-3-055555555--------------8-
    
    La flaca duerme de día..
    4a.
    ----------------------------------------------
    ----------------------------------------------
    ----------5--7-------7--5---------10—10-------
    --5----8---------7---------55---78-------0023-
    
    
    y balar y balar...
    5a.
    ----------------------------------------------
    --------------------------------
  • +
    ¡Colabora con nosotros!
    Envíanos tu versión de esta canción
  • Tutorial
    HD
    Como tocar La Flaca Jarabe de Palo en Guitarra (HD)
    Tutorial Acordes
    4:30
  • Tutorial
    La Flaca Jarabe de Palo - Como tocar en guitarra
    5:47
  • Tutorial
    HD
    CLASE DE GUITARRA FACIL, COMO TOCAR LA FLACA
    10:08

la Flaca Lyrics
En la vida conocí mujer igual a la flaca
coral negro de La Habana,tremendísima mulata
cien libras de piel y hueso,cuarenta kilos de salsa
y en la cara dos soles que sin palabras hablan
que sin palabras hablan
La flaca duerme de día,dice que así al hambre engaña
cuando cae la noche baja a bailar a la tasca
Y bailar y bailar y tomar y tomar
una cerveza tras otra, pero ella nunca engorda
pero ella nunca engorda
Por un beso de la flaca daría lo que fuera
por un beso de ella aunque sólo uno fuera
Por un beso de la flaca daría lo que fuera
por un beso de ella aunque sólo uno fuera
Aunque sólo uno fuera
Mojé mis sabanas blancas, como dice la canción
recordando las caricias que me brindó el primer día
y enloquezco de ganas de dormir a su ladito
porque Dios que esta flaca a mí me tiene loquito
a mí me tiene loquito
Por un beso de la flaca yo daría lo que fuera
por un beso de ella aunque sólo uno fuera
Por un beso de la flaca yo daría lo que fuera
por un beso de ella aunque sólo uno fuera
Aunque sólo uno fuera Aunque sólo uno fuera
Aunque sólo uno fuera Aunque sólo uno fuera
Aunque sólo uno fuera
Aunque sólo uno fuera
Aunque sólo uno fuera
Aunque sólo uno fuera Aunque sólo uno fuera
Aunque solo uno fuera
Aunque solo uno fuera
Aunque solo uno fuera
Aunque solo uno fuera




[la Flaca acordes][la Flaca cifra]
© LaCuerda.net · legal notice · privacy · es · en · pt · contact us
DINAMICO