GuitarraViva aterriza en LaCuerda
Jarabe de Palo
La Flaca
LA FLACA
JARABE DE PALO

En la vida conoci…
1a.
----------------------------------------------
----------------------------------------9-----
----------5--7-------7--5---------10—5-7------
--5----8---------7---------55---78---------87-


Cien libras de piel…
2a.
----------------------------------------------
----------------------------------------------
----------5--7-------7--5----------10—--------
--5----8---------7---------55---78------7-----


…que sin palabras habla…
3a.
----------------------------------------------
----------------------------------------------
--------------------------------7777777--5----
--11111223-------0-3-055555555--------------8-

La flaca duerme de día..
4a.
----------------------------------------------
----------------------------------------------
----------5--7-------7--5---------10—10-------
--5----8---------7---------55---78-------0023-


y balar y balar...
5a.
----------------------------------------------
----------------------------------------------
----------5--7-------7--5----------10—--------
--5----8---------7---------55---78------7-----


pero ella nunca engorga
6a.
----------------------------------------------
----------------------------------------------
----------------------------------------------
----11111223--------33333333------55555555----

7a.
----------------
----------------
---555-55-8*----
------5---------
* Jalar ligando hacia abajo de la cuerda


Corus

Por un beso de la flaca..
C1
-------------------------------
-------------------------------
------------------------5-55—--
--1-0-11-13-0-33-35-0-55--5—-8*


Por un beso de la flaca
C2.
-------------------------------
-------------------------------
------------------------5--55—-
--1-0-11-13-0-33-35-0-55--5—-5-

C3.
----------------------------------------------
----------------------------------------------
--------------------------------777777--5-----
---1---2-3-------030--55555555------------8---


Continua:
1a., 2a., 6ª. y 7ª.
Corus C1 y C2

Aunque solo uno fuera
8a.
-------------------------------
--------------------------22---
----------------------332—--32-
--1-0-11-13-0-33-35-5----------
(x 5)

Aunque solo uno fuera
9a.
-------------------------------
-------------------------------
---------77--------------------
--5--877----87-----------------

(x 10 fade out)

Para aquellos que han dedicado sus dedos a seguir el ritmo..
Creo que es lo más acertada, sin embargo,
cualquier duda o corrección enviarla a danajera@hotmail.com
This file is the work if its transcriptor and it represents his/her own interpretation of the song. This material is intended for PERSONAL USE ONLY. It is strictly forbiden to copy, reproduce or retransmit the contents of this website. Legal actions will be taken if required.
© LaCuerda.net · legal notice · privacy · es · en · pt · contact us