Guitar Chords » J »Jarabe de Palo » el Lado Obscuro (Tab)

el Lado Obscuro
Jarabe de Palo

Lyrics, Chords & Tabs for Guitar, Bass & Ukulele

  • Cm
    Puede que hayas nacido en la cara buena del mundo
    
    Yo nací en la cara mala, tengo la marca del lado oscuro
          Fm                   Gm
    Y no me sonrojo si te digo que te quiero
    Cm
    Y que me dejes o te deje, eso ya no me da miedo
          Fm                   Gm           Cm
    Habías sido sin dudarlo la más bella de entre todas las estrellas que
    yo vi en el firmamento.
    
    Como ganarse el cielo si uno ama con toda el alma
    Y es que el cariño que te tengo no se paga con dinero
    Como decirte que sin ti muero
    Y no me sonrojo si te digo que te quiero
    Y que me dejes o te deje, eso ya no me da miedo
    Habías sido sin dudarlo la más bella de entre todas las estrellas que
    yo vi en el firmamento.
    
    
  • SIm                                                 FA#7
    Puede que hayas nacido en la cara buena del mundo
    SIm
    Yo naci en la cara mala, llevo la marca, del lado oscuro
    
                MIm                   FA#7            SIm
    Y no me sonrojo si te digo que te quiero, ni que me dejes o te deje
                                  MIm                   FA#7
    Eso ya no me da miedo, habías sido sin dudarlo la mas bella
              SIm                                           FA#7
    de entre todas las estrellas que yo vi en el firmamento.
    
    SIm                                                      FA#7
    Como ganarse el cielo, cuando uno ama, con todo el alma
                  SIm
    Y es que el cariño que te tengo no se paga con dinero, como decirte que sin ti muero
               
    MIm                   FA#7            SIm
    Y no me sonrojo si te digo que te quiero, ni que me dejes o te deje
                                  MIm                   FA#7
    
  • Cm
    Puede que hayas, nacido en la cara buena del mundo,
    
    yo nací en la cara mala, llevo la marca, del lado oscuro.
    
    CORO
               Fm                      Gm
    Y no me sonrojo, si te digo que te quiero,
               Cm
    y que me dejes o te deje, eso ya no me da miedo
          Fm                          G7
    habías sido, sin dudarlo la más bella,
               Cm
    de entre todas las estrellas que yo vi en el firmamento.
    
    
    Como ganarse el cielo, cuando uno ama, con toda el alma
    y es que el cariño que te tengo, no se paga con dinero
    como decirte, que sin ti muero.
    
    
  • |-1-1---|
    |-1--1--|
    |-1---1-|
    |-3-----|
    |-3-----|
    |-1-----|
    
    O sea que primero rasgueas y luego tocas esas tres notas, Ok.
    
    Acordes:
    
       Cm  Fm  Gm  Dm  Am  Em  Bm  C#m
    e|--3---1---3---5---5---7---2---4--|
    B|--4---1---3---6---5---8---3---5--|
    G|--5---1---3---7---5---9---4---6--|
    D|--5---3---5---7---7---9---4---6--|
    A|--3---3---5---5---7---7---2---4--|
    E|--3---1---3---5---5---7---2---4--|
    
    
    
  • |----------------|---------------|----------------|
    |----------------|---------------|----------------| 
    |----------------|---------------|----------------|
    |----------------|---5p3---------|----------------|
    |---1----5/6--3*-|-3-----5/6--3*-|---1----5/6--3*-|
    |-3---3----------|---------------|-3---3----------|
    
    |-------------------|-------------|---------------|
    |-------------------|-------------|---------------|
    |-----3-------------|-------------|---------------|
    |-4h5---5p3---------|-------------|---------------|
    |------------5/6--3-|--------2-3\-|---1---5/6--3*-|
    |-------------------|-3p2p0-------|-3---3---------|  
    
    ahora el resto:
    
    (Nota1: los asteriscos arriba de la letra indica que
    tienes que hacer lo siguiente: un slide desde el Cm al Dm :
    
    |-3/5-3/5-|
    
  • El lado obscuro
    
    Esta canción es muy chida y también es muy fácil pero
    oigan la rola para que la saquen bien.
    INTRO empieza con guitarra
    y el bajo solo hace “do” y luego hace esto:
    
    G |------------------||------------|
    D |------------------||------------|
    A |-10/33----33----3-||-------6-3--|
    E |-------33----33---||-3-6-3------|
    
    Se queda solo la guitarra
    
    Puede que hayas nacido......
    
    G |-----------------------|
    D |-----------------------|
    A |-10/33----33----33-----|
    E |-------33----33----33--|
    
    Se queda así hasta que llega a la parte
    Donde dice esto:
    
    Y no me sonrojo si te digo que te quiero.....
    
    G |-----------||-------------||------------|
    D |-----------||-------------||------------|
    A |----3----5-||-33----33----|||----3----5-|
    E |-11---33---||---33----33--||-11---33----|
    
    De entre todas las estrellas que yo vi en
    El firmamento....
    
    G |--------------|
    D |--------------|
    A |-33----33-----|
    E |----33----33--|
    
    Se queda así hasta la parte
    Donde dice esto:
    
    no me sonrojo si te di
  • |--------------------------------------------------------
    |--------------------------------------------------------
    |--------------------------------------------------------
    |--------------------------------------------------------
    |--------------------------------------------------------
    |--0-3-0--3/7--5-5-0-0-5-8-12-0-0-5-5-0-0-5-5-----0-3-5--
    
    |--------------------------------------------------------
    |--------------------------------------------------------
    |--------------------------------------------------------
    |--------------------------------------------------------
    |--------------------------------------------------------
    |--5-5-0-0-5-8-12-0-0-5-5-0-0-5-5--12/6--5---------------
    
            (se repite toda la cancion)
  • +
    ¡Colabora con nosotros!
    Envíanos tu versión de esta canción
  • Tutorial
    HD
    Como Tocar El Lado Obscuro De Jarabe de Palo En Guitarra
    8:58

el Lado Obscuro Lyrics
Puede que hayas, nacido en la cara buena del mundo,
yo nací en la cara mala, llevo la marca, del lado oscuro.
Y no me sonrojo, si te digo que te quiero,
y que me dejes o te deje, eso ya no me da miedo
habías sido, sin dudarlo la más bella,
de entre todas las estrellas que yo vi en el firmamento.
Como ganarse el cielo, cuando uno ama, con toda el alma
y es que el cariño que te tengo, no se paga con dinero
como decirte, que sin ti muero.
(sube tono)
Puede que hayas, nacido en la cara buena del mundo,
yo nací en la cara mala, llevo la marca, del lado oscuro.
no me sonrojo si te digo que te quiero, si te digo, que te quiero.




[el Lado Obscuro acordes][el Lado Obscuro cifra]
© LaCuerda.net · legal notice · privacy · es · en · pt · contact us
DINAMICO