Guitar Chords » I »Ismael Serrano » Que andarás haciendo (Tab)

Que andarás haciendo
Ismael Serrano

Lyrics, Chords & Tabs for Guitar, Bass & Ukulele

  •    D/F#    Adim    F/G    Am/F   Am7/G   G#7/G   B7sus2   G9
    1---3---|---x---|---0---|--0---|---0---|---0---|---x---|---x---|
    2---3---|---x---|---1---|--1---|---1---|---1---|---1---|---3---|
    3---2---|---1---|---2---|--2---|---0---|---0---|---2---|---2---|
    4---0---|---2---|---3---|--2---|---2---|---1---|---1---|---3---|
    5---0---|---1---|---0---|--0---|---0---|---0---|---2---|---2---|
    6---2---|---3---|---3---|--1---|---3---|---3---|---x---|---x---|
    
    
       E/G# (la forma en que se usa en esta canción no es la normal)
    1|--x--|
    2|--5--|
    3|--4--|
    4|--0--|
    5|--0--|
    6|--4--|
    
    (capo 3er. Traste)
    
    INTRO:
    
  •  G            D9/F#
    Que andaras haciendo ahora
      C         B7/D#        Em
    hecha una madeja en el sillon.
       D9/F#          G                Am
    Dibujando constelaciones en los huecos
       C                     D9/F#       G4 G
    de los cuadros que aun faltan por colgar.
    
    Que andaras haciendo ahora
    apagando las luces del salon.
    Probandote quiza un vestido nuevo,
    planeando una huida, ver el mar.      D9/F# B7
    
           Em            C     Bm7-B5          E (F#)(G#)   
         Y yo afilando lunas, perdido en el hotel,
            Am        Fmaj7      Am/F#       B7
         encontrando tus caricias en el neceser.
            Em     C          Bm7-5b             E (F#)(G#)     
         Y yo buscandote en el espejo azul del baño
    
  • G:      320003
    D/F#:   2x023x
    C:      x32010
    B7/D#:  xx1202
    Em:     022003
    Am7:    x02010
    G/B:    x2003x
    F/G:    3x321x
    Am7/G:  3x201x
    G4#5:   3x101x
    F#ø:    2x221x
    B7:     x21202
    Bø:     x2323x
    E7:     020100
    Am:     x02210
    F7M:    1x221x
    B7b9:   x2121x
    G9:     3x020x
    .......................................
    
    
  • E |--------------------------------------0-|
    B |--------1-0-------3-1p0-----------1p0---|
    G |------0---------2-------0-------0-------|
    D |----0---------0-------------0h2---------|
    A |--------------------------3-------------|
    E |--3---------2---------------------------|
    
    E |-------2-3--3--------------------------|
    B |-----1------|---------0---------3-(0)--|
    G |--(2)-------|(0)----0-------2----------|
    D |-1----------|---0h2-----0-----0--------|
    A |------------|--------------------------|
    E |------------0-------------2------------|
    
    E |----------------0-----------------------------------|
    B |----1p0---0-1-----1---3----------1p0-------3--------|
    G |--------2---|-------0-|--------0-------2-----(2)----|
    D |------------|-2-------|----0h2-----------0-----(0)--|
    A |------------0---------2--3--------------------------|
    E |--3----------------------------------2--------------|
    
  • A||---------0----------------2----------0--|A1||-----------0------------2--------|--|
     ||------0----------------0----------------|  ||------0v2-----------1------------|--|
     ||----------------------------------------|  ||---3-----------------------------|--|
     ||---3----------------2-------------------|  ||---------------------------------0--|
    
    
     ||--------------------------------------------------------0------------------------|
     ||----------------------------3-------1v0-----0-----1--------1-------3-------------|
     ||-----------0-------------2---------------2--------|--0--------0----|--0----------|
     ||------0v2-----2-------0---------------------------|----------------|-------------|
     ||---2----------------------------------------------0----------------2-------------|
     ||-------------------2-------------3-----------------------------------------------|
    
    
     ||---------------------------------------------------------------------------------|
     ||--------------1v0--------------3-------------------------------------------------|
     ||-----------0----------------2-----2----------------------------------------------|
     ||------0v2----------------0-----------0-------------------------------------------|
     ||---3-----------------------------------------------------------------------------|
     ||----------------------2----------------------------------------------------------|
    
  •   D*  Fdim  F#m  Asus4  A   E  D/A#  E9/C# F*  E7/C# A/G# C#dim F#7 D9/B E/G# C#*
    |--2---4-----5-----0----0---0---2-----0-----1---x-----x-----x----2---0----0---5----|
    |--3---2-----2-----3----2---0---3-----5-----1---3-----2-----5----2---3----0---x----|
    |--2---4-----2-----2----2---1---2-----4-----2---4-----4-----4----3---2----1---6----|
    |--4---3-----4-----2----2---2---x-----x-----3---x-----x-----5----2---x----2---7----|
    |--5---------4-----0----0---2---2-----4-----x---4-----x-----4----4---2----2---5----|
    |--x---------2-----x----x---0---x-----x-----x---x-----4-----X----2---x----4---x----|
    
    
    
    
    
    Cejilla en el primer traste
    
    
       Asus4    A   E             D*          Fdim         F#m
    ||--------------------0-------------------------4-----5-------5-4-0--|
    ||--------3-2-0---------0---0-------3-2-------2---2---------2--------|
    ||------2-----------1-----1-------2-----4---4-------4-----2----------|
    ||----2-----------2-------------4---------3-------------4------------|
    
  • +
    ¡Colabora con nosotros!
    Envíanos tu versión de esta canción

Que andarás haciendo Lyrics
Que andaras haciendo ahora
hecha una madeja en el sillon.
Dibujando constelaciones en los huecos
de los cuadros que aun faltan por colgar.
Que andaras haciendo ahora
apagando las luces del salon.
Probandote quiza un vestido nuevo,
planeando una huida, ver el mar. D9/F# B7
Y yo afilando lunas, perdido en el hotel,
encontrando tus caricias en el neceser.
Y yo buscandote en el espejo azul del baño
en la ropa cansada del armario.
Que andaras haciendo ahora
cansada viendo la television.
Guardando mi paz y mis retratos,
la costumbre de dormir al lado izquierdo.
Que andaras haciendo ahora
maldiciendo la luz del primer sol.
Hermosa con los parpados mojados,
regando las plantas, todos los recuerdos.
Y yo retirando hojas secas de la cama,
soñandome contigo bajo el agua.
Y yo recordando que olvide tender la ropa,
preguntandome que andaras haciendo ahora.
5ª 2
4ª 3
3ª 2
2ª 3
1ª x

Un magnifico concierto en el auditorio Alfredo Krauss de Las Palmas
en el 2003.
Espero que os guste esta cancion.




[Que andarás haciendo acordes][Que andarás haciendo cifra]
© LaCuerda.net · legal notice · privacy · es · en · pt · contact us
DINAMICO