Guitar Chords » I »Isabelle Valdez » El toque de su gloria (Tab)

El toque de su gloria
Isabelle Valdez

Lyrics, Chords & Tabs for Guitar, Bass & Ukulele

  • Intro: A B C#m Asus
    
    E                 B          C#m
    He aprendido a llamar tu atención
         ASus
    Con un corazón  humilde
         F#m           B
    Y verdadera adoración
    E                 B          C#m
    Ahora se como  acercarme hacia ti
         Asus
    Como alguien agradecido
         F#              B
    Que le has dado el perdón
             A                       E       F#m
    Ahora entiendo, lo que decían de ti
                                   B
    Porque ahora estoy viviendo en mi
    
                          E
    
  • Intro: /A E B C#m/   /A E BSus/
    
    
    E|------------------------------------------------|
    B|------------------------------------------------|
    G|------------------------------------------------|
    D|----7----9--9s11---9----7--6--------------------|
    A|-------------------------------9----7--9s11-----|
    E|------------------------------------------------|
    
    E|------------------------------------------------|
    B|------------------------------------------------|
    G|------------------------------------------------|
    D|----7----9--9s11---9----7--6--------------------|
    A|-------------------------------9----7-----------|
    E|------------------------------------------------|
    
    
    E                           C#mSus
    He aprendido a llamar tu atención
    
  • Intro: /A E B C#m/   /A E Bm/
    
    E                 B          C#m
    He aprendido a llamar tu atención
         ASus
    Con un corazón  humilde
       E               B
    Y verdadera adoración
    E                  B        C#m
    Ahora se como  acercarme hacia ti
         Asus
    Como alguien agradecido
         E                  B
    Que le has dado el perdón
             A               ASus      E       F#m
    Ahora entiendo, lo que decían de ti
                   E                B
    Porque ahora estoy viviendo en mi
    
    
    
  • +
    ¡Colabora con nosotros!
    Envíanos tu versión de esta canción

El toque de su gloria Lyrics
He aprendido a llamar tu atención
Con un corazón humilde
Y verdadera adoración
Ahora se como acercarme hacia ti
Como alguien agradecido
Que le has dado el perdón
Ahora entiendo, lo que decían de ti
Porque ahora estoy viviendo en mi
Ante el toque de tu gloria
No me puedo resistir
Tengo que llorar en tu presencia
tengo que postrarme y adorar
tengo que declarar
que no he sentido nada igual
Tengo que elevar mi canto
cuando siento el fuego Santo
tengo que darte la gloria
cuando tu poder me toca
tengo que decirle al mundo
que no existe nadie como tu…




[El toque de su gloria acordes][El toque de su gloria cifra]
© LaCuerda.net · legal notice · privacy · es · en · pt · contact us
DINAMICO