Guitar Chords » I »los Iracundos » Las puertas del olvido (Tab)

Las puertas del olvido
los Iracundos

Lyrics, Chords & Tabs for Guitar, Bass & Ukulele

  •    Dm        Gm           C7      F            Dm     Gm        A#
    g.-2------------------I--------------------I--------------------I
    b.---3-1-3-1-3--3-3-3-I-3-5-6-5-3-1--1-1-1-I-1-3-5-3-1-0--0-0-0-I
    e.--------------------I--------------------I--------------------I
    
                 A7
    g.-----------2--2-2-2-I
    b.-0-1-3-1-0----------I
    e.--------------------I
    
     D            Gm
    No hacen mas que hablar de mi
    C                F
      y dicen cuando miro el mar
     Dm          Gm                Gm-A-A#
    que una mujer fantasma de alli
      A#           A
    conmigo viene siempre a hablar.
    
     Dm           Gm
    
  •  REm               SOLm 
    No hacen mas que hablar de mi
     DO             FA   
    y dicen cuando miro el mar
     REm              SOLm
    que una mujer fantasma de alli
     LA#             LA  
    conmigo viene siempre a hablar.
    
    I.-
    No saben que mirando el mar
    yo veo mucho mas alla
    que a ti yo te vuelvo a encontrar
    y encuentro luz para mi oscuridad.
    
    II.-
     REm               SOLm
    Por que se ocupan tanto de mi
     DO                LAm
    yo quiero que me dejen sufrir
    
  • bueno este tema lo sa que  para dos personas
    que quiero y amo ami  madre y la mas linda de todas te amo nidia
    
    bueno es el primro quesa que
    espero que les guste ok
    
    **intro**
    
    1 ---9-11-9-11-9-11---11-11-11----11--13-14---
    2 -------------------------------------------
    3 ------------------------------------------
    4 ------------------------------------------
    5 ------------------------------------------
    6 ----------------------------------------
    
    1 --13-11--9---9-8-9----9-11-13--11-9---7--7-6-7--
    2 ---------------------------------------------
    3 --------------------------------------------
    4 -----------------------------------------------
    5 ------------------------------------------------
    6 ------------------------------------------------
    
    1 --7--9--11--7--6--6-5-6---------
    2 -------------------------------
    3 ------------------------------
    4 ------------------------------
    6 ------------------------------
    espero que losaques  suena bien okdale tu puedes
  • +
    ¡Colabora con nosotros!
    Envíanos tu versión de esta canción

Las puertas del olvido Lyrics
No hacen mas que hablar de mi
y dicen cuando miro el mar
que una mujer fantasma de alli
conmigo viene siempre a hablar.
I.-
No saben que mirando el mar
yo veo mucho mas alla
que a ti yo te vuelvo a encontrar
y encuentro luz para mi oscuridad.
II.-
Por que se ocupan tanto de mi
yo quiero que me dejen sufrir
llorando el gran amor que te di
asi quiero vivir.
II.-
Las puertas del olvido se abren
ese no es un lugar para ti
estas entre las cosas que ame
aunque ya te perdi.
I.-
Se rien al hablar de mi
porque yo creo en el amor
y dicen que ya enloqueci
estoy muriendo de dolor.
II.-
Por que se ocupan tanto de mi.....
Las puertas del olvido se abren...




[Las puertas del olvido acordes][Las puertas del olvido cifra]
© LaCuerda.net · legal notice · privacy · es · en · pt · contact us
DINAMICO