Guitar Chords » I »Ingrid Rosario » Te Bendeciré (Tab)

Te Bendeciré
Ingrid Rosario

Lyrics, Chords & Tabs for Guitar, Bass & Ukulele

  •       G           Em D
    Restaurador de mi alma
    
    Em           C
    Sanas el dolor
    
    G           Em      D
    Redentor de mi ayer
    
       C      D   G
    OH te bendeciré
    
    G              Em D C
    Creador de los ci e los
    
          D        C
    La tierra y el mar
    
    G           Em  D
    El mundo se ale gra
    
  • Intro: G , D/F# ,  Em ,  C
    
    
     G                Em D
    Restaurador de mi alma
    
    Em7         C9 (032030)
    Sanas el dolor
    
    G           Em   D
    redentor de mi ayer
    
       C     D    Em
    OH te bendeciré
    
    
    G              Em   D
    Creador de los cielos
    
    Em   D          C
    
  •        G
    E:--3----------------------------------------:
    A:-----2------2-----------------2------------:
    D:---------0-----------------0---------------:
    G:----------------------0--------------------:
    B:------------------3------------------------:
    E:-------------------------------------------:
    
          D
    E:-------------------------------------------:
    A:-------------------------------------------:
    D:--0----------------------------------------:
    G:-----2-------2------------2----------------:
    B:---------3------------3--------------------:
    E:-----------------2-------------------------:
    
          Em7
    E:---0---------------------------------------:
    A:------2---------2-------------------2------:
    D:-----------2-------------------2-----------:
    
  •        G
    E:--3----------------------------------------:
    A:-----2------2-----------------2------------:
    D:---------0-----------------0---------------:
    G:----------------------0--------------------:
    B:------------------3------------------------:
    E:-------------------------------------------:
    
          D/F#
    E:--2----------------------------------------:
    A:-------------------------------------------:
    D:-----0-----0---------0---------------------:
    G:--------2---------2------------------------:
    B:--------------3----------------------------:
    E:-------------------------------------------:
    
          Em7
    E:---0---------------------------------------:
    A:-------------------------------------------:
    D:-----------2-----2-------------2-----------:
    
  • +
    ¡Colabora con nosotros!
    Envíanos tu versión de esta canción

Te Bendeciré Lyrics
Restaurador de mi alma
Sanas el dolor
Redentor de mi ayer
OH te bendeciré
Creador de los ci e los
La tierra y el mar
El mundo se ale gra
Te glorificare
Te glorificare
Te bendeciré, te bendeciré
Por siempre, por siempre




[Te Bendeciré acordes][Te Bendeciré cifra]
© LaCuerda.net · legal notice · privacy · es · en · pt · contact us
DINAMICO