Guitar Chords » H »Hombres G » Sufre Mamón (Tab)

Sufre Mamón
Hombres G

Lyrics, Chords & Tabs for Guitar, Bass & Ukulele

  • Acordes:     Dm: 000231  
                 Am: 002210     
                G#m: 466444
                 Gm: 355333  
                  A: 002220     
                 Bb: 113331    
                  F: 133211
    
    Intro:
    
    Dm-Am   Dm-Am 
    
    Dm                              Am
       Estoy llorando en mi habitacion
    Dm                           Am   
       todo se nubla a mi alrededor.
    Am-G#m-Gm                      Dm    
           Ella se fue con un ni~o pijo
    Am-G#m-Gm                      A
            en un Ford Fiesta blanco
    
  •  Bm                             F#m
       Estoy llorando en mi habitacion
     Bm                          F#m   
       todo se nubla a mi alrededor.
    F#m-Fm-Em                   Bm    
       Ella se fue con un ni~o pijo
    F#m-Fm-Em
       en un Ford Fiesta blanco
    F#m  
       y un jersey amarillo.
    
    
     Bm                         F#m
       Por el parque los veo pasar
     Bm                           F#m  
       cuando se besan lo paso fatal.
    F#m-Fm-Em                   Bm    
       Voy a vengarme de ese marica
    F#m-Fm-Em               
       voy a llenarle el cuello
    
  • esta rola esta chidisima
    SALUDOS A MI CONEJITA
    Q LA QUIERO MUCHISIMO.
    
    Cuando se besan lo paso fatal...
    
    e|---------------------------|
    B|---------------------------|
    G|---------13h14p13----------|
    D|-------------------16-14---|
    A|--14-16--------------------|
    E|---------------------------|
    
    
    Riff 2
    
    Voy a vengarme de ese marik...
    
    e|-/13-13--10----10---10-------10--|
    B|------------13----13---10-12-----|
    G|---------------------------------|
    D|---------------------------------|
    A|---------------------------------|
    E|---------------------------------|
    
    
    Solo
    
    e|-10-----------------------------|
    B|---10---------------------------|
    G|------10--/12-10-12-10—12/14-14-|
    D|--------------------------------|
    A|--------------------------------|
    E|--------------------------------|
    
    e|-/10-10-10h13-10---------------------|-5-4-3---------3----|
    B|-------------------------------------|-5-4-3---3-------3--|
    G|----------------10-12-10—12/14-16-14-|-5-4-3-3----3------3|
    D|------------------------------
  • Dm:   557765
    Am:   577555
    G#m:  466444
    Gm:   355333
    A:    577655
    
    los acordes que les dejo son para guitarra electrica pero si no tienen toquen
    con los acordes normales
    
    SOLO LAS NOTAS Bb y F SE TOCAN NORMAL DESPUES DE ESAS NOTAS TODAS SE TOCAN
    COMO LES INDICO AQUI ARRIBA
    
    
    intro: Dm Am / Dm Am
    
    
    Dm                              Am
       Estoy llorando en mi habitacion
    Dm                           Am
       todo se nubla a mi alrededor.
    
  • +
    ¡Colabora con nosotros!
    Envíanos tu versión de esta canción

Sufre Mamón Lyrics
Estoy llorando en mi habitacion
todo se nubla a mi alrededor.
Ella se fue con un ni~o pijo
en un Ford Fiesta blanco
y un jersey amarillo.
Por el parque los veo pasar
cuando se besan lo paso fatal.
Voy a vengarme de ese marica
voy a llenarle el cuello
de polvos pica-pica.
Sufre, mamon
devuelveme a mi chica
o te retorseras
entre polvos pica-pica.
Sufre, mamon
devuelveme a mi chica
o te retorseras
entre polvos pica-pica.
Le he quemado su jersey
se ha comprado cinco o seis.
Voy a destrozarle el coche
lo tengo preparado
voy esta noche.
No te reiras nunca mas de mi
lo siento nene vas a morir.
Hoy me quitaste lo que mas queria
y volvera conmigo
volvera algun dia.
Sufre mamon...




[Sufre Mamón acordes][Sufre Mamón cifra]
© LaCuerda.net · legal notice · privacy · es · en · pt · contact us
DINAMICO