Guitar Chords » H »Hillsong United » Desde mi interior (Tab)

Desde mi interior
Hillsong United

Lyrics, Chords & Tabs for Guitar, Bass & Ukulele

  • Intro: F C G  (6X)
    
    
     Verso I
              F             C          G
    Mil veces te falle, Mas tu fuiste fiel
              F               C         G
    Tu gracia me levanto, Me basta tu amor
    
    Coro:
             Am       F               C    G
    Mi Dios eterno tu luz por siempre brillara
           Am       F        C     G
    Y tu gloria incomparable sin final.
    
    Intro:F C G(x2)
    
    Verso II
              F           C     G
    Señor tu voluntad permanecera,
    
  • F                     C           G
    A veces te fallé, mas tú fuiste fiel
               F              C         G
    Tu gracia me levantó, me basta tu amor
           Am        F                C    G
    Dios Eterno, tu luz por siempre brillará
           Am       F          C     G
    Y tu gloria, incomparable sin final
    
               F           C     G
    Señor, tu voluntad permanecerá
                F             C      G
    En ti me quiero perder en adoración
           Am        F                C    G
    Dios Eterno, tu luz por siempre brillará
           Am       F          C     G
    Y tu gloria, incomparable sin final
    
    
    -- PUENTE --
    
  • Intro: /// FAdd9 - C  G ///
    e)-----------12-------------12----10-------
    B)------13----------------13--13----12-----
    G)-12_14---14-----------12------------12---
    
    Guión Bajo (Ej: 12_14): Hammer On
    
    SOLO I
             FAdd9          C         G
    Mil veces te fallé, mas tú fuiste fiel,
             FAdd9             C        G
    tu gracia me levantó, me basta tu amor.
    
    CORO
          Am       FAdd9            C      G
    Dios eterno, tu luz por siempre brillará;
          Am      FAdd9       C      G
    y tu gloria, incomparable sin final.
    
    Intro...2x
    
  • e ------------------12----------12------------------]
    B ----------13--------------13------13--15--12------]  (x4)
    G --12--14------14------12----------------------12--]
    
        F                 C         G
    A veces te falle, mas tu fuiste fiel
                F             G         G
    Tu gracia me levanto, me basta tu amor
           Am      F               C      G
    Dios eterno tu luz por siempre brillara
            Am        F       C     G
    Y tu gloria incomparable sin final
    
    e ------------------12----------12------------------]
    B ----------13--------------13------13--15--12------]  (x2)
    G --12--14------14------12----------------------12--]
    
              F           C     G
    Señor tu voluntad permanecera,
           F                  C      G
    
  •     F                    C           G
    e ------------------12----------12------------------]
    B ----------13--------------13------13--15--12------]  (x4)
    G --12--14------14------12----------------------12--]
    
        F                 C         G
    Mil veces te falle, mas tu fuiste fiel
                F             G         G
    Tu gracia me levanto, me basta tu amor
           Am      F               C      G
    Dios eterno tu luz por siempre brillara
            Am        F       C     G
    Y tu gloria incomparable sin final
    
    e ------------------12----------12------------------]
    B ----------13--------------13------13--15--12------]  (x2)
    G --12--14------14------12----------------------12--]
    
              F           C     G
    Señor tu voluntad permanecera,
    
  • Intro: F, C, G (Acompañamiento)
    
    Arpegio
    
    e --------------------12-------12----------------]
    B ----------13-------------13----13--15--12------]  (x4)
    G --12-h14-----h12-14---12-------------------12--]
    
        F                 C         G
    Mil veces te falle, mas tu fuiste fiel
                F             C         G
    Tu gracia me levanto, me basta tu amor
    
    Arpegio 2(Opcional solo para arreglo)
    
        Am         F       C       G
    B -------5---------6-------5-------3--]
    G ---------5-----5---5------5-------4-]
    D ----7--------3---------5-------5----] (x2)
    A --7------------------3-------5------]
    
  • Espero q les guste muxo....... es de muxa bendicion.....
    si tienen alguna duda me agregan a mi correo...DtB
    
    INTRO:
    
    E -------------------------------------------------------
    A -------------------------------------------------------
    D -------------------------------------------------------
    G -12h14--14------------12------------12~---------------- x4
    B ------13----------------13--13-15-12-------------------
    e -----------12-12~---------12---------------------------
    
    
    SOLO:
    
    E -------------------------------------------------------
    A -------------------------------------------------------
    D -------------------------------------------------------
    G -------------------------------------------------------
    B --10-10-10-10-10-10-10---8-8-8-8-8-8-8-----------------
    e --8--8--8--8--8--8--8----8-8-8-8-8-8-8-----------------
    
    
    E -------------------------------------------------------
    A -------------------------------------------------------
    D -------------------------------------------------------
  • Intro:
    Fa               Do           Sol
    sol la dó la mí- sol dó mí dó ré si sol (x6)
    
    1era Estrófa:
              fa                do        sol
    Do- dó si la sol la do- sol sol fa mi re
    A   veces te fallé,     mas tú fuiste fiel,
              fa                do       sol
    Re- dó si la sol la do- sol sol mi la re
    Tu gracia me levantó,   me basta tu amor,
    
    Coro:
          la        fa          do      sol
    do re mi do- mi mi re do re mi re re
    Dios eterno, tu luz por siempre brillará
          la        fa          do      sol
    do re mi do- mi mi re do re mi re re
    Y tu gloria, incomparable sin final.
    
    Intro:
    Fa               Do           Sol
    sol la dó la mí- sol dó mí dó ré si sol (x2)
    
    2da Estrofa:
              fa                do        sol
    Do- dó si la sol la do- sol sol fa mi re
    Señor, tu voluntad       permanecerá,
              fa                do       sol
    Re- dó si la sol la do- sol sol mi la re
    En ti me quiero perder   en adoración
    
    Coro.
    
    Prefacio:
         fa
    si dó
              
  • +
    ¡Colabora con nosotros!
    Envíanos tu versión de esta canción
  • Tutorial
    HD
    Desde mi interior Hillsong Tutorial con guitarra
    11:44

Desde mi interior Lyrics
Verso I
Mil veces te falle, Mas tu fuiste fiel
Tu gracia me levanto, Me basta tu amor
Mi Dios eterno tu luz por siempre brillara
Y tu gloria incomparable sin final.
Verso II
Señor tu voluntad permanecera,
En ti me quiero perder en adoración
Mi Dios eterno tu luz por siempre brillara
Y tu gloria incomparable sin final.
Yeeee... De mi Corazon te doy el control
Consume todo mi interior, Dios,
Tu justicia y amor me abrazan Señor
Te amo desde mi interior
Verso II
Señor tu voluntad ...(Repite el segundo verso)
De mi corazon...
Dios eterno tu luz por siempre brillara
Y tu gloria incomparable sin final
El clamor mi ser es contigo estar
Desde mi interior mi alma clamara
De mi Corazon te ……..
Dios eterno tu luz por siempre brillara
Y tu gloria incomparable sin final
El clamor mi ser es contigo estar
Desde mi interior mi alma clamara
final
Desde mi interior mi alma clamaraaaa




[Desde mi interior acordes][Desde mi interior cifra]
© LaCuerda.net · legal notice · privacy · es · en · pt · contact us
DINAMICO