Guitar Chords » H »Héroes del Silencio » la Chispa Adecuada (Tab)

la Chispa Adecuada
Héroes del Silencio

Lyrics, Chords & Tabs for Guitar, Bass & Ukulele

  • Dm
    
    E|--------------------------------------------------------------|   
    B|--------------------------------------------------------------|   
    G|2--3--5--7--5--7--7-8-7-5-7--7-9-10--10--9-7--5--7------------|   
    D|--------------------------------------------------------------|   
    A|--------------------------------------------------------------|   
    E|--------------------------------------------------------------|   
    
    
    Dm
    
    E|-5-5--3-5-6-5-3-5-3-5-3-1-3-1-0-1-0---------------------------|   
    B|-------------------------------------------------1--3---------|   
    G|--------------------------------------------------------------|   
    D|--------------------------------------------------------------|   
    A|--------------------------------------------------------------|   
    E|--------------------------------------------------------------|   
    
    
    
  • |--------------------------------|------------1-----------0-------|
    |--------------------------------|----------------------------1---|
    |--------------------------------|--------2-----------2-----------|
    |--------------------------------|--------------------------------|
    |--------------------3---3·--5---|-5------------------------------|
    |--------------------------------|--------------------------------|
    
    |------------1-------0-----------|--------------------------------|
    |--------1---------------1-------|------------------------1-------|
    |--------------------------------|------------3-------------------|
    |--------------------------------|--------3-----------3-----------|
    |0---------------------------0---|1-------------------------------|
    |--------------------------------|--------------------------------|
    
    |--------------------------------|------------1-----------0-------|
    |------------1-------------------|----------------------------1---|
    |0-------------------------------|--------2-----------2-----------|
    |3-------3-----------------------|--------------------------------|
    |--------------------3---3·--5---|5-------------------------------|
    |--------------------------------|--------------------------------|
    
  • e|---------------------------------------------------------|
    B|---------------------------------------------------------|
    G|------------10---9---------9h10-9------------------5---5-|
    D|----------0----0---10---10--------10-------8---10--5---5-|
    A|----------------------0--------------0---8---8-------8---|
    E|-8-8/10-10-----------------------------6-----------------|
    
    SEGUNDO INTRO
    e|---------------------------------------------------------|
    B|----------------------------10---------------------------|
    G|------------10---9-------------9------------------10-10--|
    D|----------0----0---10--10--------10-------8---10--10-----|
    A|----------------------0-------------0---8---8-----8------|
    E|-8-8/10-10----------------------------6------------------|
    PRIMER INTRO
    e|---------------------------------------------------------|
    B|---------------------------------------------------------|
    G|------------10---9---------9h10-9------------------5---5-|
    D|----------0----0---10---10--------10-------8---10--5---5-|
    A|----------------------0--------------0---8---8-------8---|
    
  • LA CHISPA ADECUADA
    
    INTRO:
    
    E------------------------------------------------
    B-------------6---5--------6-5---------1---1---1-
    G-----------7---7---5----5-----5------3--0-------
    D------------------------------------3---3---3---
    A-3-3/5-5-5------------0---------0-1-------------
    E------------------------------------------------
    
    E--------------------------5-------------(5)-----
    B-------------6---5--------5--5-------1--(6)-----
    G-----------7---7---5----5-----5------3--(5)-----
    D------------------------7-----------3---(7)---5-
    A-3-3/5-5-5------------0---------0-1---------8---
    E------------------------------------------------
    
    E------------------------------------------------
    B-------------6---5--------6-5---------1---1---1-
    
  • intro
    
    e----0-------------------------------------------------
    b---3--------------------------------------------------
    g--2---2-3-5-7-5-7-5h7-7-7-5h7-7-9-9-9h10-9-7-5-5h7-2--
    D-0----------------------------------------------------
    A------------------------------------------------------
    E------------------------------------------------------
    
    
    e----5-5-5-3-5-6-5-3-1-1h3-1-0-1-0---------------------
    b---3------------------------------3-1-1h3-3-----------
    g--2---------------------------------------------------
    D-0----------------------------------------------------
    A------------------------------------------------------
    E------------------------------------------------------
    
    
    riff1
    
    e------------------------------------------------------
    b-----------6---5-------5h6-5---------------1----------
    g---------7---7---5---5-------5-------3---3-------5----
    D-----------------------------------3---3-------5------
    A-3-3h5-5-----------0-----------0-1-----------3--------
    E-----------------------------
  • Intro:
    
    e|-----------------------------------------------------------|
    B|3--------------------------------------------------------3-|
    G|2---2-3-5-5/7-5-5-7-5h7---7-7/9-7-5-7--7-9-9/10--9-7-5-7-2-|
    D|0--------------------------------------------------------0-|
    A|-----------------------------------------------------------|
    E|-----------------------------------------------------------|
    
    e|-5-5-3-5-5/6--5-3-1-3-1-0-1-0------------------------------|
    B|------------------------------3-3-1h3-3~-------------------|
    G|-----------------------------------------------------------|
    D|-----------------------------------------------------------|
    A|-----------------------------------------------------------|
    E|-----------------------------------------------------------|
    
    
    
    e|-----------------------------------------------------------|
    B|-----------------------------------------------------------|
    G|--------------10---9--------9/10-9-----------------10------|
    D|-----------------0---10-7-7--------10----
  • LA chispa adecuada
    
    Tablatura:
    Miguel Alejandro Diaz Palmerin
    Mexico.
    
    
    
       Esta es la introducción que se escucha al terminar parasiempre
    
    Intro I
                                          A--|              A--|
    |--0----------------------------------|-----------------|-------------------5---5-5-3-5-6-5-3--1h3p1--|
    |--3----------------------------------|-----------------|-------------------3-------------------------|
    |--2--2--3---5--5/7--5--5h7--5h7---7--7----5-7---7--9-9-9---7--5--5h7---2---2-------------------------|
    |--0--------------------------------------------------------------------------------------------------|
    |-----------------------------------------------------------------------------------------------------|
    |-----------------------------------------------------------------------------------------------------|
    
    
    
  • e|---------------------------------------------------------|
    B|---------------------------------------------------------|
    G|------------10---9---------9h10-9------------------5---5-|
    D|----------0----0---10---10--------10-------8---10--5---5-|
    A|----------------------0--------------0---8---8-------8---|
    E|-8-8/10-10-----------------------------6-----------------|
    
    e|---------------------------------------------------------|
    B|----------------------------10---------------------------|
    G|------------10---9-------------9------------------10-10--|
    D|----------0----0---10--10--------10-------8---10--10-----|
    A|----------------------0-------------0---8---8-----8------|
    E|-8-8/10-10----------------------------6------------------|
    
    e|---------------------------------------------------------|
    B|---------------------------------------------------------|
    G|------------10---9---------9h10-9------------------5---5-|
    D|----------0----0---10---10--------10-------8---10--5---5-|
    A|----------------------0--------------0---8---8-------8---|
    E|-8-8/10-10-----------------------------6-----------------|
    
  • INTRO
    G|---------------|---------------|
    D|---------------|---------------|
    A|-3-3--5-5------|-3-3--5-5------|
    E|---------5--5-6|---------5--5-6|
    
    G|---------------|---------------|
    D|---------------|---------------|
    A|-3-3--5-5------|-3-3--5-5------|
    E|---------5--5-6|---------5--5-6|
    
          AQUÍ INICIA LA LETRA
    G|---------------|---------------|
    D|---------------|---------------|
    A|-3-3--5-5------|-3-3--5-5------|
    E|---------5--5-6|---------5--5-6|
    
    G|---------------|---------------|
    D|---------------|---------------|
    A|-3-3--5-5------|-3-3--5-5------|
    E|---------5--5-6|---------5--5-6|
    
             Y LUEGO ESTA PARTE X2 VECES
    G|----------------|----------------|----------------|
    D|----------------|-4-4-4-4-4-4-4-4|-5-5-5-5-5-5-5-5|
    A|-5-5-5-5-5-5-5-5|----------------|----------------|
    E|----------------|----------------|----------------|
    
    |-4-5-5-----|
    |-----------|
    |------7-7-5|
    |-----------|
    
       Luego va esto
    G|----------|
    D|----------|
    A|-5-5------|
    E|----5--5-6|
    
    G|---------------
  • +
    ¡Colabora con nosotros!
    Envíanos tu versión de esta canción
  • Tutorial
    Tutorial La Chispa Adecuada; Como tocar la Chispa Adecuada; Héroes del Silencio; Karma Guitar
    11:28
  • Tutorial
    HD
    Como tocar la chispa adecuada en guitarra (HD)
    Tutorial
    3:51
  • Tutorial
    HD
    Como Tocar La Chispa Adecuada - Heroes Del Silencio [Tutorial Guitarra]
    5:32
  • Tutorial
    La Chispa Adecuada - Heroes del silencio - Bunbury - Como tocar en guitarra
    4:28
  • Tutorial
    HD
    La Chispa Adecuada Guitarra Como tocar Tutorial
    8:44

la Chispa Adecuada Lyrics
Las palabras fueron avispas
y las calles como dunas
cuando aún te espero llegar..
1) un ataúd guardo tu tacto y
una corona
con tu pelo enmarañado
queriendo encontrar un
arco-iris infinito

2)D-Fm#- Gm A
1)Mis manos que aún son de hueso
y tu vientre sabe a pan
la catedral es tu cuerpo
1)eres verano y mil tormentas yo
el león
que sonríe a las paredes
que he vuelto a pintar del
mismo color
ESTRIBILLO
No sé distinguir entre besos y
raices
No sé distinguir lo complicado
de lo simple
y ahora estás en mi lista de
promesas a olvidar
todo arde si le aplicas la chispa
adecuada
1)El fuego que es a veces propio
la ceniza siempre ajena
blanca esperma resbalando por
1)Ya somos más viejos y sinceros
y qué más da
como llaman a la eternidad
de la ausencia
ESTRIBILLO CORO
2) D - Fm# - G - A
ESTRIBILLO FINAL
2) Las Notas Tipo Bajo tre veces llevando el ritmo (D, Fm#, G, A)

La chispa adecuada ...
..




[la Chispa Adecuada acordes][la Chispa Adecuada cifra]
© LaCuerda.net · legal notice · privacy · es · en · pt · contact us
DINAMICO