Guitar Chords » H »Herencia de Timbiquí » Sabrás (Tab)

Sabrás
Herencia de Timbiquí

Lyrics, Chords & Tabs for Guitar, Bass & Ukulele

  • Intro: Em Am C B7 Em
    
                 Em
    Quiero que sepas que mi corazón
                                 Am
    en toda situación te va a querer
                                  C
    Que cuando te miro siento el amor
                      B7               Em
    más grande que puede haber en mi ser
    
    Quiero que sepas que quererte a ti
    me nace de forma muy natural
    que tu existencia es lo mejor que a mí
    en esta vida me pudo pasar
    
    Coro
    
    Em
    y aunque me esté quedando sordo
    
  • Acorde:    Em                          Am
    E||----------0-2-3-2-0-0-------|--0-2-3-2-0-----0----------|
    B||--------0-------------0-----|------------1---1---1------|
    G||------0-----------------0---|--------------2-2-2--------|
    D||----2-----------------------|---------------------------|
    A||--2-------------------------|---------------------------|
    E||----------------------------|---------------------------|
    
    Acorde:    Am
    E||--0-2-3-0-0-0-3-0-2-2-2-2-0------|
    B||----------------------------0-2--|
    G||---------------------------------|
    D||---------------------------------|
    A||---------------------------------|
    E||---------------------------------|
    
    
    Intro: Em Am C B7 Em
    
                 Em
    
  • +
    ¡Colabora con nosotros!
    Envíanos tu versión de esta canción

Sabrás Lyrics
Quiero que sepas que mi corazón
en toda situación te va a querer
Que cuando te miro siento el amor
más grande que puede haber en mi ser
Quiero que sepas que quererte a ti
me nace de forma muy natural
que tu existencia es lo mejor que a mí
en esta vida me pudo pasar
y aunque me esté quedando sordo
y aunque me esté quedando ciego
y aunque me esté quedando mudo
te haré saber que te quiero
Aunque yo ya me encuentre viejo
Aunque esté triste o contento
Te haré saber de cualquier modo
Que estarás en mis adentros
Repite mismos acordes:
Cuando amanece y te puedo ver
mi vida se llena de luz total
siento que quiero a los niños y así
mido mi gran capacidad de amar
Cuando te beso es tanta la emoción
Que el corazón palpita más y más
entro a un estado de relajación
siento que ya puedo morir en paz
Repite Coro
Pregón
Loquito por ti estaré la vida entera(como sea yo te amo)
Y como yo no habrá nadie que te quiera…. (como sea yo te amo)
yo te amaré en el cielo o en la tierra…………(como sea yo te amo)
yyyyyyyy mis días a tu lado viviré!…………………….(como sea yo te amo)
(como sea yo te amo)
quiero cuidarte y protegerte mi vida……..(como sea yo te amo)
Y sabrás que tu, tu eres mi negrita consentida…..
(como sea yo te amo)
así este loco y ciego yo te haré entender y saber lo que siento…
(como sea yo te amo)
con todo mi cuerpo
FIN




[Sabrás acordes][Sabrás cifra]
© LaCuerda.net · legal notice · privacy · es · en · pt · contact us
DINAMICO