Guitar Chords » H »el Haragán y Compañía » El no lo mató (Tab)

El no lo mató
el Haragán y Compañía

Lyrics, Chords & Tabs for Guitar, Bass & Ukulele

  • INTRODUCCION: A,C#7,F#m,E
    
    
    
      A    C#7     F#m   E
       Se le hizo fácil
      A    C#7     F#m   E
       se le hizo fácil
                            A
       y es que nada en la vida
                 E
       es fácil,
                A
       desenfundo su puñal
              C#7
       y se dispuso a robar
                 F#m   Bm
       una gran tienda
                 D     E
       de abastos popular.
    
  •        A
    e.------------------
    B.-----2------------
    G.------------------
    D.------------------
    A.-----0------------
    E.------------------
    
    
           C#7
    e.-----------4-------
    B.-----6-------------
    G.-------------------
    D.-------------------
    A.-----4-------------
    E.-----------4-------
    
    
           F#m
    e.-----2-----2-------
    
  • INTRO
       
    
       A  C#7  F#m       E
    E|-----------------------------|
    A|-0--4------------------------|
    D|------6--4-------------------|
    G|------------2---2--0h1-1---1-|
    B|-2--6------2---2-2------0-0--|
    e|------4--2----2----------0---|
    
    
    
    Este es el intro de la canción 
    es bastente facil. Creo que se repite 
    dos veces y empiezas con los acordes
    A C#7 F#m E y SI quieres puedes acompañar
    la cancion con esos requintos.
  •          A
    
      e---0-----*
      b---2-----*
      g---2-----*
      d---------
      a---------
      E---------
    
    poniendo la pisada
    
            C#7      
    
      e---------/---4----*
      b---6----*/--------
      g---------/--------
      d---6----*/--------
      a---------/--------
      E---------/--------
    
    
  • +
    ¡Colabora con nosotros!
    Envíanos tu versión de esta canción
  • Tutorial
    HD
    Como tocar EL NO LO MATO en guitarra - El Haragan [Tutorial Somos Posers]
    7:25

El no lo mató Lyrics
Se le hizo fácil
se le hizo fácil
y es que nada en la vida
es fácil,
desenfundo su puñal
y se dispuso a robar
una gran tienda
de abastos popular.
bien vividos
mal vividos, que se yo.
Todo iba saliendo de maravilla
para ser la primera vez
no estaba tan mal.
Entró a la tienda:
sacó el puñal
y dijo en voz alta:
esto es un atraco
aflojen la lana o se morirán.
Todo iba saliendo bien
corrio de la tienda
a toda velocidad
con el dinero en las manos
con su futuro en sus manos
se dispuso a escapar.
Cruzó la gran avenida
sin parar
ya casi la iba a librar
cuando cerré los ojos
se oyó un disparo
parecía un cañón
como un monstruo
la vida le arrebató.
El juego había terminado ya
una bala le perforó el corazón.
Aquel policia, señor
se gano un ascenso
y una medalla al valor.
El lo asesinó,
era un niño
jugando al ladrón
sólo tenía 17 años
bien vividos,
mal vividos, que se yo.
El lo asesinó
sin sentido y sin razón
por un puñado de billetes
se los hubiera dado yo.
Su cuerpecillo
yacía en la acera
y el dineró
el viento se lo llevó,
Sin sentido y sin razón
todo fue un error
un estupido error.
Padres, cuiden a sus hijos
no les vaya a pasar
lo que les cuento yo.
Maldita sea la hora
en que se descarrió.
Maldito sea el mto.
en que se maleó.....
Ay que policia, señor
el no lo mató
fue la misma sociedad
y el medio
en el que se desarrolló.
El no lo mató,
fue el medio, sus padres
sus amigos, la necesidad
sus ansias, que se yo.
Sin sentido y sin razón.




[El no lo mató acordes][El no lo mató cifra]
© LaCuerda.net · legal notice · privacy · es · en · pt · contact us
DINAMICO