Guitar Chords » H »Hany Kauam » Sin tí no vivo (Tab)

Sin tí no vivo
Hany Kauam

Lyrics, Chords & Tabs for Guitar, Bass & Ukulele

  • e|---------------------------------------------------------------------
    B|-2-4-2-----------------2-4-2-----------------2-4-2-------------------
    G|-------3-34-----------------3-30-----------------3-31----------------
    D|---------------------------------------------------------------------
    A|---------------------------------------------------------------------
    E|---------------------------------------------------------------------
    
            Guitarra 2: Acústica
    e|---------------6-7-------------------7-6-------------------6-7-------
    B|-------------7---------------------8---------------------7-----------
    G|---------------------------------------------------------------------
    D|---------------------------------------------------------------------
    A|---------------------------------------------------------------------
    E|---------------------------------------------------------------------
    
            Guitarra 3: Electroacústica
    e|-----------------------------------------4-4-------------------------
    B|-----------------------------------------4-4-------------------6---4-
    G|-----------------------------------------4-4---------------------8---
    D|---------------------------------------------------------------------
    
  • +
    ¡Colabora con nosotros!
    Envíanos tu versión de esta canción

Sin tí no vivo Lyrics
Guitarra 2: Acústica
Guitarra 3: Electroacústica
La última parte la hace solo la Guitarra 1
(De aquí en adelante la Guitarra 2 Charrasquea las notas durante todo...
la canción a Excepcion de cuando se tienen que callar los tres guitarras)
*************** Estrofa I ***************
Dónde estás amor, ven y ayudame,
todo es irreal, se desvanece,
Riff 1 Riff 1
dónde estás amor, ven susurrandome,
Riff 2 <-- Aqui se comienza el Riff 2
que mi corazón te pertenece,
llueve tanto amor,
nunca te olvidé, siempre te amaré, siempre, te amaré, niña vuelve,
F#7 (Distorsion Gtr 1) <-- Aqui termina el Riff 2
niña vuelve...
*************** Coro ***************
Riff 3
Porque sin ti no vivo yo, no vivo más,
no existo más y antes de nacer
ya habia muerto de amor,
Riff 4
Porque sin ti no vivo yo, no vivo más,
no existo más y antes de nacer
ya habia muerto de amor,
(Esto lo hace el bajo en la canción Pero lo puedo hacer la Guitarra 1)
*************** Estrofa II ***************
Riff 5 Riff 5
Te amo tanto amor, ven y sienteme,
Riff 6
nunca es tarde amor, quiero tenerte,
Riff 1 Riff 1
y que de una vez tú puedas entender,
Riff 7
que mi corazón te pertenece,
llueve tanto amor,
Riff 8
nunca te olvidé, siempre te amaré, siempre
te amaré, niña vuelve, niña vuelve...
(Se Toca el coro tal cual esta arriba)
Porque sin ti no vivo yo,
naranana nana nana narana
*************** Aquí se sube un tono ***************
Riff 9
Porque sin ti... nounoh...
Porque sin ti no vivo yo, no vivo más,
no existo más y antes de nacer
ya habia muerto de amor,
Porque sin ti no vivo yo, no vivo más,
no existo más y antes de nacer
ya habia muerto de amor,
Porque sin ti no vivo yo,
y si tú no estás el mundo me daria igual...
*************** FIN ***************
Riff 1:
Guitarra 1
B|--11~-
Riff 2:
Guitarra 1
Guitarra 3
Riff 3:
Guitarra 3
Riff 4:
Guitarra 3
Riff 5:
Guitarra 3
Riff 6:
Guitarra 3
Riff 7:
Guitarra 1
Riff 8:
Guitarra 1
Riff 9:
Guitarra 1
*************************************
Se que no entiendes los numeros y todo lo demas
que aparece en esta página, solo queria que leyeras
esto y que supieras que esta canción va dedicada
con todo mi cariño a ti Rosma "MI DONCELLA".
Espero que te guste, mi cielo.
*************************************
Bueno Aqui les dejo la primera tablatura que saco
Me gustaría que me escribiran a mi correo dandome
opiniones, sugerencias, y/o criticas para mejorar
Alexander Rondón (rondon.alex@hotmail.com)




[Sin tí no vivo acordes][Sin tí no vivo cifra]
© LaCuerda.net · legal notice · privacy · es · en · pt · contact us
DINAMICO