Guitar Chords » G »la Gusana Ciega » No puedo verte (Tab)

No puedo verte
la Gusana Ciega

Lyrics, Chords & Tabs for Guitar, Bass & Ukulele

  •                         G
    Hay cosas que yo puedo perdonar,
    
    B                             G
    pero hay cosas que tu tienes que explicar,
    
    B                        G
    porque yo siempre tengo que esperar,
    
             D                   E                  A
    en una esquina, mientras tu bailas con alguién más.
    
    
    
    B                     G
    Yo no soy nadie para desconfiar,
    
    B                        G
    pero ultimamente nada ha sido igual,
    
    
  •  que onda rockeros y rockeras. estube buscando tabs de la gusana y me
    fije que a esta cancion le falta el solo a si es que voy a mandar mi 
    version. todo esta correcto y suena bien si lo tocan al ritmo que debe ir.
    para sacar el ritmo solo escuchen el cd y sigan el tab. ojala y les ayude.
    
    
     solo
    
    1: ------------------------------------------------------------
    2: ------------------------------------------------------------
    3: ------------------------------------------------------------
    4: ---------------2-4-5-4---5-4-2------------------------------
    5: --0-0-0--2-4-5-------------------5-4-2--4-5-----------------
    6: ------------------------------------------------------------
    
    
    1: ------------------------------------------------------------
    2: ------------------------------------------------------------
    3: ------------------------------------------------------------
    4: ------------------------------------------------------------
    5: --5-4-2----------------------2-4-5--
  • E-------------------------------   ------------------------------
    B-------------------------------   ------------------------------
    G-------------------------------   ------------------------------
    D-----------------------------2-   ------------------------------
    A--2222-0-2222-0-2222-0-2-4-5---   --------------------------2-4-
    E-------------------------------   --3333-0-3333-0-3333-0-3-5----
    
    
    Bm                        G riff:1
    Hay cosas que yo puedo perdonar,
    
    Bm                             G fiff:1
    pero hay cosas que tu tienes que explicar,
    
    Bm                        G riff:1
    porque yo siempre tengo que esperar,
    
             D                   E                  A
    en una esquina, mientras tu bailas con alguién más.
    
    
  •  este es el intro:
    
    e----------------------------------------------------
    B----------------------------------------------------
    G----------------------------------------------------
    D------------------------------------0-2-------------  x 2 lo llamare riff B
    A--2-2-2-2-0-2-2-2-2-0-2-2-2-2-0-2-4-----------------
    E----------------------------------------------------
      en esta`parte los SI( traste 2) van con contrapua
    
     en los versos va:
    
              lo mismo de arriba primero luego inmediatamente
    
        
    D-------------------------------------------------
    A----------------------------0-2-4----------------   lo llamare riff G
    E-3-3-3-3-1-3-3-3-3-1-3-3-3-3---------------------
    
    
    riff B Y G SE USAN EN TODA LA CANCION EN LOS VERSOS 
    ESCUCHA LA CANCION PARA QUE VEAS EN DONDE VAN 
    
      -SOLO-
    
    
    E------------------------------------------------------------
    B------------------------------------------------------------
    G--------------------------------------------------------
  • Solo: (Bm,E,A, se repite tres veces)
    
    |-----------------------|-----------------|
    |-----------------------|-----------------|
    |-----------------------|-----------------|
    |-------2-4-5-4-5-4-4-4-|-5-4-2-----------|
    |-2-4-5-----------------|-------5-4-2-4-5-|
    |-----------------------|-----------------|
    
    |-----------------------|--------------------|
    |-----------------------|--------------------|
    |-----------------------|--------------------|
    |-----------------------|-------------2-4-5--|
    |-5-4-2-----------------|-------2-4-5--------|
    |-------5-3-2-3-5-------|-2-3-5--------------|
    
    |--------------------------|----7----7----7----7-|
    |--------------------------|----7----7----7----7-|
    |--------------------------|---------------------|
    |-2-4-5-4-2----------------|-999--999--999--999--|
    
  • 0:03
    
    G--------------------------------
    D--------------------------------
    A-0-2---2-------2-------2--------
    E------------3-------3-------3---
    
    G-----------------------------------------------------
    D-----------------------------------------------------
    A--5555-5555-5555-5555-7777-7777-7777-7777------------
    E------------------------------------------5555-5555-5
    
    
    0:37
    G---------------------------------------------------------------
    D---------4--------------------4---------------------------4----
    A-0-2---2---2---2-1----5-----2---2---2-1----5--------0-1-2---2--
    E-------------------3-----3--------------3------3--5------------
    
    -------------------
    ---------5---------
    -2-1---------------
    -----3-3----3--5--7
    
    G-----------------------------------------------------
    D-----------------------------------------------------
    A--5555-5555-5555-5555-7777-7777-7777-7777------------
    E------------------------------------------5555-5555-5
    
    CORO 1:12  X 2
    
    G-------------------
  • +
    ¡Colabora con nosotros!
    Envíanos tu versión de esta canción
  • Tutorial
    HD
    Como tocar NO PUEDO VERTE en guitarra - La Gusana Ciega [Tutorial Somos Posers]
    11:43

No puedo verte Lyrics
Hay cosas que yo puedo perdonar,
pero hay cosas que tu tienes que explicar,
porque yo siempre tengo que esperar,
en una esquina, mientras tu bailas con alguién más.
Yo no soy nadie para desconfiar,
pero ultimamente nada ha sido igual,
piensa dos veces antes de jugar,
con mi cariño, que estoy dispuesto a hacerte llorar.
Porque yo no, no, no, no puedo verte,
con alguien más.
(Se repite una vez más)
Hay cosas que yo puedo perdonar,
pero últimamente nada ha sido igual,
no te sorprendas si algún día estas,
sin mi cariño, y estoy en brazos de alguién más.
No puedo descubrir que te vas a ir,
no puedo permitir que me engañes a mí, como yo te engaño a tí.
REQUINTO (b,E,A, se repite tres veces)
Por que yo no, no, no, quiero perderte,
por alguien más.
escuchas junto con el original.EL ROCK ES CULTURA! ROCK MATA POP!
(Guillotina)




[No puedo verte acordes][No puedo verte cifra]
© LaCuerda.net · legal notice · privacy · es · en · pt · contact us
DINAMICO