Guitar Chords » G »Guasones » Hay Momentos (Tab)

Hay Momentos
Guasones

Lyrics, Chords & Tabs for Guitar, Bass & Ukulele

  • e--------------------------------------
    B--------------------------1-----------
    G--------0--0-------0---------0--------
    D---------------3----------------------
    A---3----------------------------------
    E--------------------------------------
    
    C          C/F           C        C/F
    No me despiertes cuando vengas
    C        C/F      C         C/F
    Y no me hables al oído
    C        C/F         C           C/F
    Ya no me sirven tus palabras
               F        G         C         C/F
    Apague el sueño demasiado temprano
    
    Deje una carta en la mesa
    Con muy poca lucidez
    Pero el amor no se olvida
    Toda mi vida rendida a tus pies
    
  • F                        C
    No me despiertes cuando vengas
    F                  C
    Y no me hables al oído
    F                      C
    Ya no me sirven tus palabras
    Am          G         F        C
    Apague el sueño demasiado temprano
    F                     C
    Deje una carta en la mesa
    F                 C
    Con muy poca lucidez
    F                     C
    Pero el amor no se olvida
    Am       G       F           C
    Toda mi vida rendida a tus pies
    
    
          Am                      F
    Hay momentos que no recuerdo nada
    
  • [INTRO] C-C/F x4
    
    e|-------------|--|
    B|--1-1----1---|--|
    G|--0-0---0-0--|x2|
    D|------3~-----|x2|
    A|-3-----------|--|
    E|-------------|--|
    
    cuando entra la 2da guitarra cambia levemente:
    
    e|------------|--|
    B|---1----1---|--|
    G|--0----0-0--|x2|
    D|-2----3~----|x2|
    A|-3----------|--|
    E|------------|--|
    
    [VERSO]
    
    
  • HAY MOMENTOS(Vivo Luna Park)
    
    
    El bajo entra con este solo en la mitad de la canción
    
    1/-----9-10-10-9----9-10-12-9----9-10-10-9----------------
    2/--10-----------10-----------10-----------12-10-9-10-----
    3/--------------------------------------------------------
    4/------------------------------------------------------8-
    
    
    Sigue hasta el final
    1/--------------------------------------------------------
    2/--------------------------------------------------------
    3/-0000000-------------33333333---(22222222)--------------
    4/---------0-11111111--------------33333333---------------
    
    En la ultima termina con esto
    4/--33-44-5---
    
    
    Esta es la versión en vivo, escúchenla así se guían
  • +
    ¡Colabora con nosotros!
    Envíanos tu versión de esta canción
  • Tutorial
    Como tocar Hay momentos-Guasones (principiante)
    5:13

Hay Momentos Lyrics
No me despiertes cuando vengas
Y no me hables al oído
Ya no me sirven tus palabras
Apague el sueño demasiado temprano
Deje una carta en la mesa
Con muy poca lucidez
Pero el amor no se olvida
Toda mi vida rendida a tus pies
Hay momentos que no recuerdo nada
Hay momentos que no puedo olvidar
Hay momentos que por las madrugadas
Me arrepiento y empiezo a temblar
Cinco segundos de gracia
Y mil horas sin razón
Sequé mis lágrimas en espejos fríos
Y soy la sombra de ayer
Hay momentos que no recuerdo nada
Hay momentos que no puedo olvidar
Hay momentos que por las madrugadas
Me arrepiento y empiezo a temblar
No me despiertes cuando vengas
Y no me hables al oído
Ya no me sirven tus palabras
Apague el sueño demasiado temprano




[Hay Momentos acordes][Hay Momentos cifra]
© LaCuerda.net · legal notice · privacy · es · en · pt · contact us
DINAMICO