Guitar Chords » G »Gian Marco » Una canción de amor (Tab)

Una canción de amor
Gian Marco

Lyrics, Chords & Tabs for Guitar, Bass & Ukulele

  •  G  C  D  D7 Dm7Cmaj7 Cm Cm7B7 Em Am7
    
    -3  0  2  2  1  0     3  3  2  0  0
    -3  1  3  1  1  0     4  4  0  0  1
    -0  0  2  2  2  0     5  3  2  0  2
    -0  2  0  0  0  2     5  5  1  2  2
    -2  3  X  X  X  3     3  3  2  2  0
    -3  X  X  X  X  3     X  X  X  0  X
    
    INTRO: G  D7  C  G  D
    G
    Hace mucho no sentia
    Dm7
    Lo que siento en este dia
    Cmaj7
    No puedo explicarme nada
    Cm7
    Solo tengo tu mirada
    G
    Aqui clavada entre mis ojos
    
  • G
    Hace mucho no sentía
             Bm
    lo que siento en este día
           C
    no puedo explicarte nada
          Cm
    solo tengo tu mirada
    G
    aquí plasmada entre mis ojos
    Bm
    solo tengo un raro antojo
        C
    de extrañarte cada día
        D
    y ser parte de tu vida
    G
    Yo no puedo hablar de nada
    Bm
    lo único que hago es mirarte
    
  • INTRO: G  C  D  C  G  D
    
    ESTROFA:
           G                     G7
    Hace mucho no sentia lo que siento en este dia,
    C                       Cmaj7
    no puedo explicarme nada,
       Cm                         G
    solo tengo tu mirada aqui clavada entre mis ojos
          D                 Dsus        C          Cmaj7
    Solo tengo un raro antojo de extrañarte cada dia
           Cm           D
    y ser parte de tus dias.
    
           G                        G7
    Yo no puedo hablarte nada lo unico que hago es mirarte
            C             Cmaj7
    una que otra carcajada
           Cm                       G
    No controlo mis palabras y cuando voy a buscarte,
    
  • weno les envio la tablatura de esta linda
     cancion esta 100% bien hecha
    
    e|:-------3--3-3--4-4-3---------3--3-3-4-6--4-3---6--6-4-4-3------
    B|:----------------------------------------------------------4----
    G|:---3-3------------------3-3---------------------------------5--
    D|:---------------------------------------------------------------
    A|:---------------------------------------------------------------
    E|:---------------------------------------------------------------
    
    
    e|-------4--4-4--6-6-4-3----3-6-----------------3-3--------------
    B|------------------------6-----6--4-4---------------6-6-4--6-6--
    G|---5-5-------------------------------3----3-3------------------
    D|---------------------------------------------------------------
    A|---------------------------------------------------------------
    E|---------------------------------------------------------------
    
    e|------------------------------------------4-3---:|
    B|-------6-6--4-4-3--4-4--------6-6--4-4--6-------:|
    G|---3-3------------
  • +
    ¡Colabora con nosotros!
    Envíanos tu versión de esta canción
  • Tutorial
    HD
    Como tocar Una Cancion de amor de GIANMARCO en Guitarra
    3:20

Una canción de amor Lyrics
Hace mucho no sentía
lo que siento en este día
no puedo explicarte nada
aquí plasmada entre mis ojos
de extrañarte cada día
y ser parte de tu vida
Yo no puedo hablar de nada
lo único que hago es mirarte
una que otra carcajada
no controlo mis palabras
y cuando voy a buscarte
mis latidos se aceleran
amor con la luna llena
DE LA PENUMBRA SIENTO
QUE NACE UNA LUZ
SIENTO TUS MANOS
Y PRESIENTO QUE ERES TU
QUE ESTAS MUY CERCA
NO PUEDO CREER QUE TU AMOR
ABRIO MI PUERTA...... (bis)
esta corta melodía
explicándote en mis dias
mis deseos de querete
de poder volver a verte
de engreirte tiernamente
cada minuto del dia
y cantarte eternamente




[Una canción de amor acordes][Una canción de amor cifra]
© LaCuerda.net · legal notice · privacy · es · en · pt · contact us
DINAMICO