Guitar Chords » G »Gian Marco » No puedo amarte (Tab)

No puedo amarte
Gian Marco

Lyrics, Chords & Tabs for Guitar, Bass & Ukulele

  • Intro: DO/DO7/FA/FAm/SOL/DO
    
    DO          DO7                    FA
    Algo, me esta pasando desde que te vi,
    
       FAm                   DO          SOL
    lo unico que hago es escribir, sin razon.
    
    DO        DO7                          FA
    Hablas de todo un poco cuando estas conmigo
    
       FAm                   DO               SOL
    y cualquier tema es entretenido, si estas tu.
    
    DO          DO7                    FA
    Cuentame, cuentame de todo y sin medida
    
    FAm                     DO        SOL
    quiero descubrirte cada dia, cada dia.
    
    
  • Intro: C/C7/F/Fm/C/G
    
     C           C7                    F
    Algo, me está pasando desde que te vi,
    
       F                      C           G
    lo único que hago es escribir, sin razón.
    
     C         C7                          F
    Hablas de todo un poco cuando estas conmigo
    
       Fm                       C              G   G7
    y cualquier tema es entretenido, si estas tu.
    
      C        C7                      F
    Cuéntame, cuéntame de todo y sin medida
    
     Fm                      C         G
    quiero descubrirte cada día, cada día.
    
    
  • Intro
    
    e|----15-------12-----------------------12------
    b|--------15--------12---13---13---15-------/13-  
    g|----------------------------------------------  
    D|----------------------------------------------    3 veces
    A|----------------------------------------------
    E|----------------------------------------------
    
    
    
    e|----13---12-------------12--------------------
    b|--------------15---13--------13--------------- 
    g|----------------------------------13----------  
    D|----------------------------------------------   
    A|----------------------------------------------
    E|----------------------------------------------
    
    e|----------------------------12---13-----------
    b|-------------12---13---15---------------------  
    g|---12---14------------------------------------  
    D|----------------------------------------------    
    A|----------------------------------------------
    E|----------------------------------------------
    
    
    
    e|----15-------12-----------------------12------
  • INTRO:
    
    e|--------------------------------------------------8----------------|
    B|--4/5-4/5-8-5------5/3-1-5/6..-6-5-------------10---9/10-9/10-8..--|
    G|--------------5--------------------5-------------------------------|
    D|-----------------7-------------------6/7-5..-----------------------|
    A|-------------------------------------------------------------------|
    E|-------------------------------------------------------------------|
    
    SOLO: (Despues del 1er. coro)
    
    Solo:
    
    e|--8---8-10-8---------8-8---8---8-10-11-10-8-----12..----|
    B|----5--------10-10-9-----9---9--------------9-8---------|
    G|--------------------------------------------------------|
    D|--------------------------------------------------------|
    A|--------------------------------------------------------|
    E|--------------------------------------------------------|
    
    e|-10-8-10-8-15-11-8-11-8-11-11-8-15..--|
    B|--------------------------------------|
    G|--------------------------------------|
    D|---------------
  • +
    ¡Colabora con nosotros!
    Envíanos tu versión de esta canción
  • Tutorial
    HD
    No puedo amarte - GIANMARCO (tutorial)
    3:51

No puedo amarte Lyrics
Algo, me esta pasando desde que te vi,
lo unico que hago es escribir, sin razon.
Hablas de todo un poco cuando estas conmigo
y cualquier tema es entretenido, si estas tu.
Cuentame, cuentame de todo y sin medida
quiero descubrirte cada dia, cada dia.
Y trato de descubrir lo que yo estoy sintiendo
de descifrar tus gestos conversando y riendo
No puedo, no puedo quererte aunque me muera
necesito pensar aunque no quiera,
no puedo amarte, no puedo amarte
ahora no.
No puedo, no puedo quererte aunque me muera
necesito pensar aunque no quiera,
no puedo amarte, no puedo amarte
ahora no.




[No puedo amarte acordes][No puedo amarte cifra]
© LaCuerda.net · legal notice · privacy · es · en · pt · contact us
DINAMICO