Guitar Chords » G »Gerardo Ortiz » Para que lastimarme (Tab)

Para que lastimarme
Gerardo Ortiz

Lyrics, Chords & Tabs for Guitar, Bass & Ukulele

  • 1----------2h3p2-----------------0
    2-------3------------3-0---------0
    3---0----------------------2-----1
    4--------------------------------0
    5--------------------------------2
    6--------------------------------0
    
           Am                         D
    Sé que tienes nuevos planes en tu vida,
                G             G/F#       Em7  E7
    Sé que hay sueños que no cumples todavía,
             Am                        D
    Que tus metas son distintas a las mías,
            G             G/F#           Em7  E7
    Que tu aspiras a lo grande y muy arriba,
    
                    Am          D
    Pero sabes una cosa mi amor
                           G
    Eso no lo entiende el corazón...
    
  •         C                          D
    Sé que tienes nuevos planes en tu vida,
                G             D       Em
    Sé que hay sueños que no cumples todavía,
             C                        D
    Que tus metas son distintas a las mías,
            G             D           Em
    Que tu aspiras a lo grande y muy arriba,
    
                    C          D
    Pero sabes una cosa mi amor
                           G
    Eso no lo entiende el corazón..
    
                     C                                  D
    Si ya tenias tus planes, Para que te molestabas en enamorarme
                G                                D            Em
    Para que ilusionarme, Si te espera un gran futuro por delante
    
                             C                    D
    
  • Am                                  D
    Sé que tienes nuevos planes en tu vida
    G                         D       Em
    Sé que hay sueños que no cumples todavía
             C                         D
    Que tus metas son distintas a las mías
    C                    D             G
    Que tu aspiras a lo grande y muy arriba
    
          C                 D
    Pero sabes una cosa mi amor
    G             D           Em
    Eso no lo entiende el corazón..
    
                      C
    Si ya tenias tus planes
                                     D
    ¿Para que te molestabas en enamorarme?
                   G
    Para que ilusionarme
    
  • G|--------------------------------
    D|--------------------------------
    A|--------------------------------
    E|---------------------------------
    
    E|--10--12--10--10/12--10--10/12---10--12--10--8---7--7/8---7--5-
    B|--12--13--12--12/13--12--12/13---12--13--12--10--8--8/10--8--7-
    G|---------------------------------------------------------------
    D|---------------------------------------------------------------
    A|---------------------------------------------------------------
    E|----------------------------------------------------------------
    
    E|--10~~10~~7--5--3-----3-3-3--3--3--2--0-
    B|--12~~12~~8--7--5-----5-5-5--5--5--3--0-
    G|--12~~11~~------------------------------
    D|----------------------------------------
    A|----------------------------------------
    E|-----------------------------------------
    
    E|--0h0---0--0--0--0h0--0--0---0--0--0-------------
    
  • +
    ¡Colabora con nosotros!
    Envíanos tu versión de esta canción
  • Tutorial
    HD
    Para qué lastimarme - Gerardo Ortíz- Tutorial guitarra - REQUINTOS
    6:27
  • Tutorial
    HD
    Para qué lastimarme - Gerardo Ortíz - Tutorial guitarra - REQUINTO 1/2
    6:41

Para que lastimarme Lyrics
Sé que tienes nuevos planes en tu vida,
Sé que hay sueños que no cumples todavía,
Que tus metas son distintas a las mías,
Que tu aspiras a lo grande y muy arriba,
Pero sabes una cosa mi amor
Eso no lo entiende el corazón..
Si ya tenias tus planes, Para que te molestabas en enamorarme
Para que ilusionarme, Si te espera un gran futuro por delante
Si ya sabias que tarde o temprano ibas a marcharte
Para que obligarme a empezar de cero a olvidarte
Si nunca fuí importante, Si no ibas a amarme
Para que lastimarme




[Para que lastimarme acordes][Para que lastimarme cifra]
© LaCuerda.net · legal notice · privacy · es · en · pt · contact us
DINAMICO