Guitar Chords » F »La Fuga » Por verte sonreír (Tab)

Por verte sonreír
La Fuga

Lyrics, Chords & Tabs for Guitar, Bass & Ukulele

  •     C*            G              D
    E |-----------------------------------3-2---3-2-------|
    B |--------3-------------3------------3-3---3-3-------|
    G |------0---0---0-----0---0---0----2-----2-----2---2-|
    D |----2-------2-----0-------0----0---------------0---|
    A |--3-------------2----------------------------------|
    E |---------------------------------------------------|
    
        C*             G         Am       Am* Am
    E |------------------------------------0--0------
    B |--------3-------------3--------3-1--3--1------
    G |------0---0---0-----0---0----2------2--2------
    D |----2-------2-----0--------2--------2--2------
    A |--3-------------2----------0--------0--0--0-2-
    E |----------------------------------------------
    
    *: Acordes de DoM y Lam pisando el tercer traste de la
    segunda cuerda, obteniendo un Re que suena mazo bien.
    
    Guitarra 1: Punteo. Guitarra 2: Acordes.
    
  •     Cadd9          G6              D     Dsus4
    Hace tiempo prometí escribirte una canción,
        Cadd9            G6          Am
    como siempre, mal y tarde, la tienes aquí,
        Cadd9          G6          D         Dsus4
    sabes bien, como soy, que no suelo mentir
        Cadd9          G6             Am
    siempre que lo hice fue por verte sonreír.
    
    Estribillo
    
         C    Em             D
    LLámame, te quiero escuchar,
          C         Em            D
    ya lo ves, no siempre me va bien,
           C        Em         D
    al cantar, me duele el corazón,
           C               Em              D
    y enloquezco cada noche en cada actuación.
    
    
  • Pista 1 (acustica)
    
    E||-------------------------|-----------------------|----------0h-2----------|
    B||-----------3-------------|-----------3-----------|----------------3-------|
    G||--------0-------0-----0--|--------0-------0------|-------2-----------2----|
    D||-----2-------------2-----|-----0-----------------|--0---------------------|
    A||--3----------------------|--2--------------------|------------------------|
    E||-------------------------|-----------------------|------------------------|
    
    
    
    --3------2-------------|-------------------------|-----------------------|
    --------------3-----3--|-----------3-------------|-----------3-----------|
    -----------------2-----|--------0-------0-----0--|--------0-------0------|
    -----------------------|-----2-------------2-----|-----0-----------------|
    -----------------------|--3----------------------|--2--------------------|
    -----------------------|-------------------------|-----------------------|
    
    
    
    ------------------------|-----
  •    C              G             D
    e|----------------------------------0h-2------3--2------------
    B|-------3--------------3----------------3----------3---3-----
    G|-----0---0----------0---0-------2--------2----------2-------
    D|---2-------2------0-----------0-----------------------------
    A|-3--------------2-------------------------------------------
    E|------------------------------------------------------------
    
       C              G             D
    e|------------------------------------------------------------
    B|-------3--------------3-----------0h1------3--1-------------
    G|-----0---0----------0---0-------2-----2----------2----------
    D|---2-------2------0-----------0---------2-----------2-------
    A|-3--------------2-------------------------------------------
    E|------------------------------------------------------------
    
       C              G             D
    e|----------------------------------0h-2------3--2------------
    B|-------3--------------3----------------3----------3---3-----
    G|-----0---0----------0---0-------2--------2----------2-------
    
  • +
    ¡Colabora con nosotros!
    Envíanos tu versión de esta canción
  • Tutorial
    Como Hacer Por Verte Sonrreir - La Fuga
    3:18

Por verte sonreír Lyrics
*: Acordes de DoM y Lam pisando el tercer traste de la
segunda cuerda, obteniendo un Re que suena mazo bien.
Guitarra 1: Punteo. Guitarra 2: Acordes.
Hace tiempo prometí escribirte una canción,
como siempre, mal y tarde, la tienes aquí,
sabes bien, como soy, que no suelo mentir
siempre que lo hice fue por verte sonreír.
Only acordes:
:: ESTRIBILLO ::
LLámame, te quiero escuchar,
ya lo ves, no siempre me va bien,
al cantar, me duele el corazón,
y enloquezco cada noche en cada actuación.
Fuí yo quien dijo no y ahora en la misma mesa
se me enfría el café mientras dices que te va bien.
Tranquila, ya no volveré a llamar, no me volverás a ver
esta vez, me marcho para no volver.
:: estribillo ::
Y ahora, cansado de mirar tu foto en la pared,
cansado de creer que todavía estás,
me he puesto a recordar las tardes del café
las noches locas que, siempre acababan bien.
Y me he puesto a gritar estrellando el whisky
en la pared. Por verte sonreír, he vuelto yo a perder.
:: estribillo ::
Y ezo ez todo, pá dudas, correcciones o congratulations
mensajillo a : eztopa84@hotmail.com Alá a disfrutar con
este grupazo. Un saludillo pá toós y en especial pá mi
niña de su papi ;-).




[Por verte sonreír acordes][Por verte sonreír cifra]
© LaCuerda.net · legal notice · privacy · es · en · pt · contact us
DINAMICO