Guitar Chords » F »Frankie Ruiz » Tú con él (Tab)

Tú con él
Frankie Ruiz

Lyrics, Chords & Tabs for Guitar, Bass & Ukulele

  • Para recordar a uno de los pocos intérpretes de Salsa erótica que se
    encuentra entre mis favoritos: Frankie Ruíz. Esta canción va para
    Ella (no entiendo por qué...)
    
    Intro (2 veces):
    
    G ---------------------|
    D ----12-------12------|
    A -10-------10---------| (Riff 1)
    E -------10-------11---|
    
    G ------------------------|
    D -------14---------------|
    A ----14-------14----12---| (Riff 2)
    E -12-------12----12------|
    
    G --------------------|
    D -14-------14--------|
    A -------12----12-----| (Riff 3)
    E ----12----------10--|
    
    G ---------------------|
    D -12-10----14-12------|
    A -------12------------| (Riff 4)
    E ---------------------|
    
    Tocar después de la segunda vez (Riff 5)
    
    G ---------------------------|
    D --------12-------12--------|
    A -12--10-------10----10-----| (Riff 5)
    E -----------10----------12--|
    
    ("Seguro mujer que hoy eres feliz; que nada de ayer,
    hoy te hace llorar"..)
    
    G ----------------------|
    D ----14--12--14--------|
    A -12---------------10--| (Riff 6)
    E ---------------10---
  • +
    ¡Colabora con nosotros!
    Envíanos tu versión de esta canción






[Tú con él acordes][Tú con él cifra]
© LaCuerda.net · legal notice · privacy · es · en · pt · contact us
DINAMICO