Guitar Chords » F »Franco de Vita » Tan sólo tú (Tab)

Tan sólo tú
Franco de Vita

Lyrics, Chords & Tabs for Guitar, Bass & Ukulele

  • Em Am D Bm
    Em Am Bm7
    
    Em    Am        D                        Bm
    Tú me das las cosas que yo quiero cuando menos me lo espero
    Em    Am       Bm7
    Tú me das el aire que respiro,
    Em    Am     D                      Bm
    Tú serás lo que tanto buscaba y yo creía que no existía y
    Em    Am     D                     D7
    Tú vendrás robándome la vida pa’ fundirla con la tuya
    Bm                               Bm7
    y que será de mi cuando en tus brazos yo descubra que
    C     D       G                    C
    Tú serás el cielo que jamás podré tocar
             Am           D      G
    es imposible ya lo sé, abrázame
    
    Em     Am       D                               Bm
    Tú me das un golpe de energía cuando estoy sin batería y
    
  • Em Am D Bm
    Em Am Bm7
    
    Em    Am      D                          Bm
    Tú me das las cosas que yo quiero cuando menos me lo espero
    Em    Am      Bm7
    Tú me das el aire que respiro,
    Em    Am    D                         Bm
    Tú serás lo que tanto buscaba y yo creía que no existía y
    Em    Am     D                      C
    Tú vendrás robándome la vida pa’ fundirla con la tuya
    Bm                             Bm/A
    y que será de mi cuando en tus brazos yo descubra que
    Cadd9    D       G                      Cadd9   C G/B
    Tú     serás el cielo que jamás podré tocar
       Am              D   C     G
    es imposible ya lo sé, abrázame
    
    Em     Am    D                         Bm
    Tú me das un golpe de energía cuando estoy sin batería y
    
  •    E       C        D       G9
    e|-3---0-------3----2------------5-|
    B|---0---0-1-----------3------3----|
    G|-----------2-------2---2--4------|
    D|---------------------------------|
    A|---------------------------------|
    E|---------------------------------|
    
       E       C        D        G9      SIm7
    e|-3---0-------3----2------------5-|--2--|
    B|---0---0-1-----------3------3----|--3--|
    G|-----------2-------2---2--4------|--2--|
    D|---------------------------------|--4--|
    A|---------------------------------|--2--|
    E|---------------------------------|-----|
    
       E       C        D        G9
    e|-3---0-------3----2------------5-|
    B|---0---0-1-----------3------3----|
    G|-----------2-------2---2--4------|
    
  • e--3-------------3--2---------3-------3---------3--2-----2---------|
    B-------5----1---------3-----------------5--1--------3---3---------|
    G-----4--4-----0--2--2---2---0-0--------4-4---0--2--2-2--2---------|
    D-------------------0------------------------------0-----0---------|
    A--0---------0-------------2----------0-----0----------------------|
    E------------------------------------------------------------------|
    
    
    e--3-------------3---2---------3--------3---------3--2-------2----|
    B-------5----1----------3------------------5--1--------3-----3----|
    G-----4--4-----0--2---2---2---0--0--------4-4---0--2--2-2----2----|
    D--------------------0-------------------------------0-------0----|
    A--0---------0--------------2-----------0-----0-------------------|
    E-----------------------------------------------------------------|
       Tu…       me das….                   Tu     me das el aire q..
    
    
    e--3-------------3---2---------3--------3---------3--2-----2-------|
    B-------5----1----------3------------------5--1--------3---3-------|
    G-----4--4-----0--2---2---2---0--0--------4-4---0--2--2-2--2-------|
    
  •     E        C      D       G9
    e|-3---0-------3----2------------5-|-----|
    B|---0---0-1-----------3------3----|-----|
    G|-----------2-------2---2--4------|-----|
    D|---------------------------------|-----|
    A|---------------------------------|-----|
    E|---------------------------------|-----|
    
    e C G9 (punteo)
    
    I:
    E      C
    tu me das
    D                    G9
    las cosas que yo quiero cuando menos me lo espero
    E       C
    y tu me das
           G9
    el aire q respiro
    
    
  • +
    ¡Colabora con nosotros!
    Envíanos tu versión de esta canción

Tan sólo tú Lyrics
Tú me das las cosas que yo quiero cuando menos me lo espero
Tú me das el aire que respiro,
Tú serás lo que tanto buscaba y yo creía que no existía y
Tú vendrás robándome la vida pa’ fundirla con la tuya
y que será de mi cuando en tus brazos yo descubra que
Tú serás el cielo que jamás podré tocar
es imposible ya lo sé, abrázame
Tú me das un golpe de energía cuando estoy sin batería y
tú me das la vida en un instante
Tú serás la historia más bonita la que nunca se te olvida
y tú vendrás entregando tu vida para hacerte con la mía
y qué será de mi cuando en tus besos yo entendía que
Tú serás (serás) el cielo que jamás podré tocar
es imposible ya lo sé… que Tan sólo tú me das (me das)
la vida que yo siempre quise para mi, es imposible ya lo sé, perdóname
Por pensar sólo en mi (por pensar sólo en mi, por pensar sólo en mi)
Por no darte mas de lo que te di (por no darte mas de lo que te di)
Por amarte simplemente, no me pidas hacer lo que no puedo hacer,
si tu quieres y puedes olvídame tú serás (serás) el cielo que jamás
podré tocar, es imposible ya lo sé... Que tan sólo tú me das (me das)
la vida que yo siempre quise para mi (la vida que yo siempre quise)
pero es imposible ya lo sé... Que tan sólo tú…
Es imposible ya lo sé... perdóname Uh perdóname
Comentarios: alonsobillin@hotmail.com




[Tan sólo tú acordes][Tan sólo tú cifra]
© LaCuerda.net · legal notice · privacy · es · en · pt · contact us
DINAMICO