Guitar Chords » F »Franco de Vita » Contra vientos y mareas (Tab)

Contra vientos y mareas
Franco de Vita

Lyrics, Chords & Tabs for Guitar, Bass & Ukulele

  • F               Am        Dm
    No me preguntes como sucedió
    Bb         Gm             G
    O si será cierto tal vez no
    F            Am           Dm
    Solo se que ahora estoy aquí
    Bb              Gm                 G
    Y no hago otra cosa que pensar en ti
    Dm  Am     F
    Pensar en ti.
    
    F                Am       Dm
    Me resulta un  tanto peligroso
    Bb          Gm             G
    Pero que decirte de lo hermoso
    F          Am        Dm
    Sobrepasa cada pensamiento
    Bb         Gm          G
    Inevitable como mi alimento.
    
    
  • INTRO: //: F | Dm ://
    
    F                         Dm
    No me preguntes como sucedió
    Bb         G/B            C
    O si será cierto tal vez no
    F                         Dm
    Solo se que ahora estoy aquí
    Bb                  G/B            C
    Y no hago otra cosa que pensar en ti
    Bb  C       F
    Pensar en ti.
    
    F                          Dm
    Me resulta un  tanto peligroso
    Bb          G/B            C
    Pero que decirte de lo hermoso
    F                    Dm
    Sobrepasa cada pensamiento
    Bb         G/B          C
    
  • ------------------------------------------------------------
    ------------------------------------------------------------
    
    
    INTRO
              F               Dm
    e-------------------------------0----0--0p1---------------
    B-------1---------1----------------------------3----------
    G-----------2-------2--------2----2---------2----2--------
    D-----3---3-----3-----3---0------------------------0------
    A---------------------------------------------------------
    E---1--------1--------------------------------------------
              F               Dm
    e-------------------------------0----0--0p1...------------
    B-------1---------1---------------------------------------
    G-----------2-------2--------2----2-----------------------
    D-----3---3-----3-----3---0-------------------------------
    A---------------------------------------------------------
    E---1--------1--------------------------------------------
    
    
  • +
    ¡Colabora con nosotros!
    Envíanos tu versión de esta canción

Contra vientos y mareas Lyrics
No me preguntes como sucedió
O si será cierto tal vez no
Y no hago otra cosa que pensar en ti
Pensar en ti.
Me resulta un tanto peligroso
Pero que decirte de lo hermoso
Sobrepasa cada pensamiento
Inevitable como mi alimento.
Por eso llévame contigo a donde vayas
Que sin ti mi brújula me falla
Llévame contigo a donde sea
Contra vientos y mareas.
Y va mas allá del bien y el mal
No hay cosa que se le pueda comparar
Y que puedo hacer si ha sido así
Yo sin ti ya no puedo vivir
Por eso llévame contigo a donde vayas
Que sin ti mi brújula me falla
Llévame contigo a donde sea
Contra vientos y mareas.
Y que puedo hacer
Si así son las cosas del querer
Y no busques razón
Cuando va mandando el corazón
Y no hay quien puede decirle que no
Esta ciego igual que yo...
Por eso llévame contigo a donde vayas
Que sin ti mi brújula me falla
Llévame contigo a donde sea
Contra vientos y mareas.




[Contra vientos y mareas acordes][Contra vientos y mareas cifra]
© LaCuerda.net · legal notice · privacy · es · en · pt · contact us
DINAMICO