Guitar Chords » F »Francisco Barrios » Prohibido (Tab)

Prohibido
Francisco Barrios

Lyrics, Chords & Tabs for Guitar, Bass & Ukulele

  • Intro:    F   Am   Dm  A#   C
    
    F         Am          Dm
    Aquí estoy detrás de mi nariz,
    A#               C
    Bohemio renegado, sin destino
    F         Am          Dm
    Dicidente como un equivoco, un error
    A#                           C
    Un loco un transgresor, un mal parido
    
    Dm              A#
    Con los puños apretados, 
                      C
    con la cara endurecida, 
                           C7
    y este amargo en la saliva, huuu,
    
    F   Am   Dm  A#   C
    
    
  •     F    Am   Dm          Fsus4          C
    E|--1----------------------------------------------------|
    A|-------------------------1--------------3-----|3-------|
    D|-------2-----|0-----------2--------------2----|2-----2-|
    G|---2-2--2----|2-2--2--2----2--------------0---|0--0----|    X2
    B|----1----1---|3-------------1-1^3----------1--v3---1---|
    E|----------0--v1--3--1--0----------1-1-1----------------|
    
    F        Am                Dm
      Aquí estoy, detrás de mi nariz:
    Fsus4              C
      bohemio renegado, sin destino;
    F        Am             Dm
      disidente como un equívoco, un error,
    Fsus4                    C
      un loco, un transgresor, un malparido…
    Dm*                 A#*
      Con los puños apretados,
                       C
      con la cara endurecida
    
  •   F          Am      Dm                 Bb                   C
    1|----------------0-|-----3---1--------|-------1-------1----|-------0-0---0--|
    2|-----1--------1---|-------------3----|-----3---1h3--------|-----1---1------|
    3|---2---2----2-----|---2---2---2------|---3---------3---3--|---0-----0-0---0|
    4|------------------|-0----------------|--------------------|---------2------|
    5|----------0-------|---------------0--|-1------------------|-3-------3------|
    6|-1----------------|------------------|--------------------|----------------|
    
    El verso se toca igual que el into
    
    F      Am              Dm
      Aqui estoy detras de mi nariz
    Bb                  C
      Bohemio renegado sin destino
    F      Am              Dm
      Disidente como un equivoco un error
    Bb                       C
      Un loco un transgresor un mal parido
    
    Dm                   Bb [------- Estos acordes van con cejilla
    
  • +
    ¡Colabora con nosotros!
    Envíanos tu versión de esta canción

Prohibido Lyrics
Aquí estoy detrás de mi nariz,
Bohemio renegado, sin destino
Dicidente como un equivoco, un error
Un loco un transgresor, un mal parido
Con los puños apretados,
con la cara endurecida,
y este amargo en la saliva, huuu,
Aquí voy en esta nube gris,
Con tanta necedad, hechando chispas
Exiliado en el descaro de vivir
Como un tumor maligno, en tu sonrisa
Veras que no estoy solo
Somos muchos los proscritos
Los bastardos, los malditos, huuuu
Y estoy aquí,
oculto en el rincón de lo prohibido
pensando en ti,
tratando de ser otro, pero el mismo,
insurrecto, perseguido, ilegal y fugitivo
tengo un sueño clandestino, para ti. Huuuu
y que esperas de mi,
si ya nomas me queda este camino
siempre huyendo en el silencio,
con esta soledad, y mis canciones
Este mundo pies de plomo
Aburrido y fanfarron,
Perfumado y socarron
Y estoy aquí,
Oculto en el rincón de lo prohibido
pensando en ti,
tratando de ser otro, pero el mismo,
insurrecto, perseguido, ilegal y fugitivo
tengo un sueño clandestino, para ti. Huuuu
CHEQUENLA, SI HAY ALGUN ERROR HAGANMELO SABER
micro_dina01@hotmail.com




[Prohibido acordes][Prohibido cifra]
© LaCuerda.net · legal notice · privacy · es · en · pt · contact us
DINAMICO