Guitar Chords » F »Formula V » Eva María (Tab)

Eva María
Formula V

Lyrics, Chords & Tabs for Guitar, Bass & Ukulele

  • INTRO: LA RE MI (x 4)                                   ORIGINAL LA
    
    LA           RE
    Eva María se fue
                MI        LA      RE/MI/LA
    buscando el sol en la playa, (Eva María se fue…)
                     RE
    con su maleta de piel
           MI       LA      RE/MI/FA#m
    y su biquini de rayas. (con su maleta de piel…)
    
                               RE
    Ella se marcho y solo me dejo
              MI      LA
    recuerdos de su ausencia,
    RE       MI       LA
    sin la menor indulgencia,
          MI     LA   RE/MI/LA
    Eva María se fue.
    
    
  • Intro y estribillo:
    E||------------|----1-1-------|----------------------------------||
    B||-----3-4----|--------1-3---|--------3-4-4-4---6-6-------------||
    G||---3--------|--------------|------3---------5-----------------||
    D||-3----------|--------------|----3------------------7-8--------||
    A||------------|--------------|----------------------------------||
    E||------------|--------------|----------------------------------||
    ¿Que voy hacer? ¿Que voy hacer? Que voy hacer si Eva Maria se fue
    
    Estrofa:
    E||-----------|--------------------------|--------------------||
    B||-----3-3-4-|----------6-6-6--3--------|--------3-3-6-4-----||
    G||-3-3-------|----5-5-5----------3------|-3-3-3--------------||
    D||-----------|--------------------------|--------------------||
    A||-----------|--------------------------|--------------------||
    E||-----------|--------------------------|--------------------||
    Eva Mº se fue buscando el sol en la playa con su maleta de piel
    
    E||-----------------
  • +
    ¡Colabora con nosotros!
    Envíanos tu versión de esta canción

Eva María Lyrics
Eva María se fue
buscando el sol en la playa, (Eva María se fue…)
con su maleta de piel
y su biquini de rayas. (con su maleta de piel…)
Ella se marcho y solo me dejo
recuerdos de su ausencia,
sin la menor indulgencia,
Eva María se fue.
Paso las noches así
pensando en Eva María.
Cuando no puedo dormir,
miro su fotografía.
Qué bonita esta bañándose en el mar
tostándose en la arena,
mientras yo siento la pena
de vivir sin su amor.
¿Qué voy a hacer?
¿Qué voy a hacer?
¿Qué voy a hacer?
Si Eva María se fue? (x 2)
Apenas puedo dormir,
pensando si ella me quiere.
Si necesita de mí
y si es amor lo que siente.
Ella se marcho y solo me dejo…
¿Qué voy a hacer?... (x 2)
Eva María se fue,
buscando el sol en la playa… (Eva María se fue…)




[Eva María acordes][Eva María cifra]
© LaCuerda.net · legal notice · privacy · es · en · pt · contact us
DINAMICO