Guitar Chords » F »Floricienta y su banda » Mi vestido azul (Tab)

Mi vestido azul
Floricienta y su banda

Lyrics, Chords & Tabs for Guitar, Bass & Ukulele

  • E
    y yo te voy a esperar
    B
    y no me voy a pintar
    C#m                                G#m
    yo se que te gusto mucho cuando me ves natural
    A                                E
    y llegare tan puntual no quiero perder mas tiempo
    F#m                                 B
    cada segundo que tardas es un beso que te resto
    
    
    me pondre el vestido azul
    que se que te gusta mas
    dejare mi pelo suelto para que baile en el viento
    y en nuestra esquina de siempre el aire se ah perfumado
    porque en todas las ventanas el amor se esta asomando
    
    Estribillo:
    ------------------------------------
    
  • MI/SI#      MI
    y yo te voy a esperar
                        DO#m
    y no me voy a pintar
      
    ya se que te gusto mucho
              SOL#m
    cuando me ves natural
    
    y llegare tan puntual
              MI
    no quiero perder mas tiempo
                 
    cada segundo que tardas 
               SI7         MI
    es un beso que te resto.
                          SI7
    me pondre el vestido azul 
                           DO#m
    que se que te gusta mas
    
  • E
    y yo te voy a esperar
    B
    y no me voy a pintar
    C#m                              G#m
    yo se que te gusto mucho cuando me ves natural
    A                                E
    y llegare tan puntual no quiero perder mas tiempo
    F#m                                B
    cada segundo que tardas es un beso que te resto
    
    E
    me pondré el vestido azul
    B
    que se que te gusta mas
    C#m                               G#m
    dejare mi pelo suelto para que baile en el viento
    A                                   E
    y en nuestra esquina de siempre el aire se ah perfumado
    F#m                                 B
    
  •         E                  Badd9              C#m               G#5
     e|2-----2---0-----0|-2-----2--2-----2|-4-----4--4-----4|-4-----4--4-----4|
     b|----0---------0--|-----2--------2--|-----5--------5--|------4--------4-|
     g|--1---------1----|---4--------4----|---6--------6----|----5--------5---|
     d|2---------2------|-4--------4------|-6--------6------|-6--------6------|
     a|-----------------|-----------------|-----------------|-----------------|
     E|-----------------|-----------------|-----------------|-----------------|
    
            A                    E               F#m             Badd9
     e|0-----0---0-----0|-2-----2--0-----0|-2-----2--2-----2|-2-----2--2-----2|
     b|----2---------2--|-----0--------0--|-----2--------2--|-----2--------2--|
     g|--2---------2----|---1--------1----|---2--------2----|---4--------4----|
     d|2---------2------|-2--------2------|-4--------4------|-4--------4------|
     a|-----------------|-----------------|-----------------|-----------------|
     E|-----------------|-----------------|-----------------|-----------------|
    
           B5
     e|-7----------|
     b|-----7------|    2 VECES TODA LA ESTROFA
     g|---8---8----|
    
  •     E
     e|-2-----2-0-------|
     b|---0-------0---0-|
     g|-----1-------1---|
     d|-2-------2-------|
     a|-----------------|
     E|-----------------|
    
     Solo
    
     e|----------------------------------------------|
     b|--------------9-7v----------------------------|
     g|----------6-8-------9-8-9--9-6----6-8/9-8-6---|
     d|----6-7-9----------------------9------------9-|
     a|-/7-------------------------------------------|
     E|----------------------------------------------|
    
     e|-7(x3)-------------------------------------------------------|
     b|-------10-10--9-9--7/9------12---10-9-7----------------------|
     g|-----------------------9----------------9-8-6-8-9-8--6-6/8---|
    
  • +
    ¡Colabora con nosotros!
    Envíanos tu versión de esta canción

Mi vestido azul Lyrics
y yo te voy a esperar
y no me voy a pintar

ya se que te gusto mucho
cuando me ves natural
y llegare tan puntual
no quiero perder mas tiempo

cada segundo que tardas
es un beso que te resto.
me pondre el vestido azul
que se que te gusta mas
dejare mi pelo suelto
para que baile en el viento

y en nuestra esquina de siempre
el aire se ha perfumado
por que en todas las ventanas
el amor se esta asomando.
ESTRIBILLO:
PERO NO VINO NUNCA NO LLEGO
Y MI VESTIDO AZUL SE ME ARRUGO
Y ESTA ESQUINA NO ES MI ESQUINA
Y ESTE AMOR YA NO ES MI AMOR.
PERO NO VINO NUNCA NO LLEGO
Y YO JAMÁS SABRE LO QUE PASO
ME FUI LLORANDO DESPACIO
ME FUI DEJANDO EL CORAZÓN.
y me robaste la esqina y me quede
tan perdida adonde vuelan mis sueños
a un callejón sin salida y me quite
mi vestido que tanto te gustaba
total me siento desnuda,total ya no
tengo nada.
ACLARACION:despues de repetir nuevamente
estribillo hay un interbalo que es el
siguiente:
Y EL NO VINO NUNCA NO LLEGO.
si quisieran darme alguna sugerencia y/o
consejo escribanme a:ale_90_2_14@hotmail.com.
se la dedico a mis mejores amigas y amigos:
eli,yanina.m,sergio,joni y damian y karen.
LOS QUIERO UN MONTONASO,SON TODO EN MI VIDA.




[Mi vestido azul acordes][Mi vestido azul cifra]
© LaCuerda.net · legal notice · privacy · es · en · pt · contact us
DINAMICO