Guitar Chords » F »Fausto Miño » Algo Así (Tab)

Algo Así
Fausto Miño

Lyrics, Chords & Tabs for Guitar, Bass & Ukulele

  •  C    G   Am    F
     8    6   5     5
     8    7   5     6
     9    6   5     5
     10   x   7     x
     10   x   7     x
     x    x   x     x
    
    En toda la canción se utiliza el mismo punteado
    usando bien los bajos suena mejor.
    
    INTRO:
    Punteo:
    
         C         G         Am      F
    E|-----------------------------------------|
    A|-10------------------7-------------------|
    D|---10------------------7-----------------|
    G|-----9-9---6-6-6-6-------5-5---5-5-5-5-5-|
    B|--8-8-8-8---7-7-7-7---5-5-5-5---6-6-6-6--|
    
  • Intro:C,G
    
    LA CANCÍON ES FACIL LO SIGUIETE ES EL
    PUNTEO EN EL QUE SE BASA TODA LA CANCION :
    
    PUNTEO:
    
         C         G         Am      FE
    E|--------------------------------------|
    A|--------------------------------------|
    D|--------------------------------------|
    G|--------------------------------------|
    B|--1-1-1-1--0-0-0-0--1-1-1-1--1-1-1-1--|
    E|-0-0-0-0--3-3-3-3--0-0-0-0--1-1-1-1---|
    
    C
    ESTE AMOR ES ALGO ASI
    G
    COMO UN BUQUE PORTAAVION
    Am
    
  • +
    ¡Colabora con nosotros!
    Envíanos tu versión de esta canción

Algo Así Lyrics
LA CANCÍON ES FACIL LO SIGUIETE ES EL
PUNTEO EN EL QUE SE BASA TODA LA CANCION :
PUNTEO:
ESTE AMOR ES ALGO ASI
COMO UN BUQUE PORTAAVION
COMO UN POSTRE SIDERAL
FE
QUE A VIAJDO DESDE EL SOL
ESTE AMOR ES ALGO ASI
COMO EL FUEGO DE UN RITUAL
PURIFICA EL CORAZON
FE
Y TE ABRAZA DE VERDAD
(EN EL CORO SON LAS MISMAS
NOTAS PERO RASGADAS)
ESTE AMOR ES ALGO ASI
COMO UN GRITO UNA SEÑAL
EXPLOSIVO C0MO ALCOHOL
FE
QUE TE AYUDA A PERDONAR
ESTE AMOR
ALGO ASI
COMO UNA
FE
DEL AMOR
PARTIRE
NO TE IRAS
FE
NO ME IRE
(DE AHÍ ES LO MISMO QUE ANTES)
EL AMOR ES CUANDO A TI
TE ACARISIA EL CORAZON
TU TE RIES DE VERDAD
FE
O TE QUEJAS DE VERDAD
EL AMOR ES CUANDO AL FIN
NOS QUEDAMOS SOLO DOS
Y NOS GUSTA RETOCAR
FE
MI PINCEL Y TU COLOR
EL AMOR ES CUANDO TU
ME CONVENCES DE VERDAD
QUE SOY DUEÑO DE TU LUZ
FE
QUE POR TI VALE PELEAR
ESTE AMOR
ALGO ASI
COMO UNA
FE
DEL AMOR
PARTIRE
NO TE IRAS
FE
NO ME IRE
(EL SOLO NO LO E SACADO TODAVIA,
PROCIMAMENTE ESTARA)
ALGO ASI
PARA AREGLOS O CUALQUIER COSA:
DIEGOOVNI_@HOTMAIL.COM




[Algo Así acordes][Algo Así cifra]
© LaCuerda.net · legal notice · privacy · es · en · pt · contact us
DINAMICO