Guitar Chords » E »Eskorbuto » Adios reina mía (Tab)

Adios reina mía
Eskorbuto

Lyrics, Chords & Tabs for Guitar, Bass & Ukulele

  • Tom: E
    
    (intro 2x) A E B E
    
    ( A E B E ) (x3)
    
    A        E          B                 E
    Adiós reina mía, parece que marcho de aquí.
    A         E          B          E
    Mi barrio, mi calle se quedan sin mí.
    A         E         B         E
    Sirenas y disparos sin voz y sin dolor
    A          E         B          E
    Adiós reina mía, ya no pinto nada aquí.
    A          E             B
    Mi vida, ruleta que da vueltas,
    E
    perdiendo el control.
    
    E                    A                B      E
    
  • Con escucharla un par de veces se saca.
    Animaros vosotros a sacaros mas.
    Ahí va:
    
    Intro:
    e|--------------------------------------------------------
    B|--------------------------------------------------------
    D|-------6--------------1--------8--------------1---------
    G|-----7---7----------2--------9---9----------2---2-------
    A|---7-------7------2--------9-------9------2-------2-----
    E|-5-----------5--0--------7-----------7--0-----------0---
    
    e|--------------------------------------------------
    B|--------------------------------------------------
    D|-------6--------------1--------8--------------1---
    G|-----7---7----------2--------9---9----------2-2---
    A|---7-------7------2--------9-------9------2-------
    E|-5-----------5--0--------7-----------7--0---------
    
    
    
    Intermedio:
    e|-777777-444444-222222-444444--|
    B|-999999-555555-444444-555555--|
    D|------------------------------|   X3
    G|------------------------------|
    A|------------------------------|
    E|------------------------------|
    
    
    Verso:
    e|--
  • +
    ¡Colabora con nosotros!
    Envíanos tu versión de esta canción

Adios reina mía Lyrics
( A E B E ) (x3)
Adiós reina mía, parece que marcho de aquí.
Mi barrio, mi calle se quedan sin mí.
Sirenas y disparos sin voz y sin dolor
Adiós reina mía, ya no pinto nada aquí.
Mi vida, ruleta que da vueltas,
perdiendo el control.
Cuando me marche, no me olvidaré de ti.
Cuando me marche, no me olvidaré de ti.
Cuando me marche, reina mía, no me olvidaré de ti.
No me olvidaré de ti.




[Adios reina mía acordes][Adios reina mía cifra]
© LaCuerda.net · legal notice · privacy · es · en · pt · contact us
DINAMICO