Guitar Chords » E »En Espiritu y en Verdad » Vamos a cantar (Tab)

Vamos a cantar
En Espiritu y en Verdad

Lyrics, Chords & Tabs for Guitar, Bass & Ukulele

  • Intro: D#
    
    Verso 1:
    
    D#
    Amamos todo de ti
    
    Cielo y tierra te adoran
    Cm
    Los reinos se rinden
    
    Hijo de Dios
                  Bb
    Tú eres por quien
                  G#
    Tú eres por quien
            D#
    Vivimos hoy
    
    
    
  • Intro E5 (chord)
        (melodi line)E,B,E,B,E,E8va arriba 2veces
    
    Chorus
    
      E5
    Vamos a cantar con la música del cielo
     C#m7
    Vamos a cantar alegres porque escuchas
              Bsus4            A2            E5
    Cuando cantamos para exaltar Tu nombre
    
    
    Intermedio E5 A5/E x2
    
    Verse1
    
    E5
    Amamos todo de ti, Cielo y tierra te adoran
    C#m7
    
  • MELODIA[*]  (E E E E A G# F# E)
    E
    Amamos todo de ti
                        D# - C#m
    Cielo y tierra te adoran
    Los reinos se rinden
                                B
    Hijo de Dios Tú eres por quien
                    A
    Tu eres por quien
              E  *
    Vivimos hoy
    E
    Tú eres quien nos liberta
                        D# - C#m
    Tú eres la Luz que guía
    Como un fuego ardiente
                                B
    Hijo de Dios Tú eres por quien
                    A
    
  • e----------------------11-11-|---11--11------------
    B---------------11--11-------|-----------------
    G------------8----8----------|8-8-----------
    D----------------------------|--------
    A----------------------------|--------------
    E----------------------------|-------------
    
    Coro:
    
          D#
    Vamos a cantar con la música del cielo
          Cm
    Vamos a cantar alegres porque escuchas
            Bb         G#             D#
    Cuando cantamos para exaltar tu nombre
    
    e-----------------------------------------
    B-----------------------------------------
    G----------------------------------------- X6
    D--8-8-8-8-8-8-8-13-12-12-12-8------------
    
  •              D#
              e |---------------------------| esta figura
              B |-----------------16--16~---| se hace como
              G |-----15-----15-------------| siete veces
              D |--13------13---------------|  casi ocho
              A |---------------------------| porque entra
              E |---------------------------|    LA voz
    
    
    [CORO:]
                  D#
             Vamos a cantar con la música del cielo
                  Cm
             Vamos a cantar alegres porque escuchas
                    A#            G#   A#    D#
             Cuando cantamos para exaltar tu nombre
    
    [INTERMEDIO:]
    
                D#
    
  • +
    ¡Colabora con nosotros!
    Envíanos tu versión de esta canción
  • Tutorial
    Vamos a cantar tutorial con guitarra acustica
    6:11
  • Tutorial
    Tutorial de Guitarra - Vamos a Cantar - Más Como Jesús
    5:22

Vamos a cantar Lyrics
Amamos todo de ti
Cielo y tierra te adoran
Los reinos se rinden
Hijo de Dios Tú eres por quien
Tu eres por quien
Vivimos hoy
Tú eres quien nos liberta
Tú eres la Luz que guía
Como un fuego ardiente
Hijo de Dios Tú eres por quien
Tú eres por quien
Vivimos hoy
Vamos a cantar con la música del cielo
Vamos a cantar alegres porque escuchas
Cuando cantamos para exaltar tu nombre




[Vamos a cantar acordes][Vamos a cantar cifra]
© LaCuerda.net · legal notice · privacy · es · en · pt · contact us
DINAMICO