Guitar Chords » E »En Espiritu y en Verdad » Infinito Dios (nuevas fuerzas tendrán) (Tab)

Infinito Dios (nuevas fuerzas tendrán)
En Espiritu y en Verdad

Lyrics, Chords & Tabs for Guitar, Bass & Ukulele

  • C5 Csus4 C5  Csus4
    
    VERSE
    
    C
    Nuevas fuerzas tendrán
    
    Los que esperan en Dios
    
    Esperaremos en Dios, esperaremos
    
    C/E   F    C/E F    G   Am  G
     Dios rei  na   rá por siempre
    
    C/E  F  C/E F  G Am  G
    Nuestro fuerte libertador
    
    Chorus
    
    C                      F
    
  •   C                                            F
    // NUEVAS FUERZAS TENDRAN A LOS QUE ESPERAN EN DIOS
    
    
    ESPERAREMOS EN DIOS, ESPERAREMOS //
    
    C/E  F   C/E F G  Am   G
    DIOS REINARA POR SIEMPRE
    C/E  F   C/E F G  Am   G
    NUESTRO FUERTE LIBERTADOR
    
    
    CORO:
    
    C                F                  Am
    ERES EL INFINITO DIOS, EL INFINITO DIOS
    
                    F           C                  F
    TU NO DESMAYAS NUNCA FALLAS, DEFENSOR DE LOS DEBILES
    
    
  • G|--------0-0-0--------------------------------------------|--------|
    D|----0h2-------2--3-3--3-2---0-2-3-3--3-2---0-2-3-3--3-2--|-2h3p2--|
    A|-3------------------------3--------------3--------------3|-------3|
    E|---------------------------------------------------------|--------|
    
    COROS (rasgueos)
    
    C          F          Am         F
    
    B|-13-|    B|-13-|    B|-10-|    B|-13-|
    G|-12-|    G|-10-|    G|-9--|    G|-10-|
    D|-10-|    D|-10-|    D|-7--|    D|-10-|
    
    SOLO 1
    
    (min. 2:34)
    e|-------------------------------------------|
    B|-----13-13---------------------------------|
    G|-12---------12-12--14-14-------------------|
    D|---------------------------12--12h14-14-14-| (x3)
    
  • e-----------------------------------------------------3--
    B----------------------------------------------------1---
    G-------0-0-----------------------------------------0----
    D---0h2-------2-3-3-3-2---0-2-3-3-3-2---0-2-3-3-3-2------
    A-3---------3-----------3-------------3------------3-----
    E-------------------------------------------------------- X2
    
    VERSO 1:
       C                   Cadd11        C         Cadd11
    // NUEVAS FUERZAS TENDRAN  LOS QUE ESPERAN EN DIOS
            C         Cadd11
       ESPERAREMOS EN DIOS, ESPERAREMOS //
    C    F  C  F  G   Am   G  C     F  C   F G  Am    G
    DIOS REINARA POR SIEMPRE, NUESTRO FUERTE LIBERTADOR
    
    
    
    CORO:
    
    C                F                  Am
    
  • E |-------------------------------------------------9-|
    B |-----------------------------------------------6--|
    G |---------0-0------2-3-3-2-0-------0-2-3-3-2-0---|
    D |-----h-0-2----------------------3--------------3-|
    A |----3-------------------------------------------|
    E |------------------------------------------------|
    
    Estrofas
    
    E |------------------------------------------------------|
    B |------------------------------------------------------|
    G |---------0-0------2-3-3-2-0-------0-2-3-3-2-0---------|
    D |-------------------------------3--------------3-------|
    A |----3-------------------------------------------------|
    E |------------------------------------------------------|
    
    
      C                                            F
    // NUEVAS FUERZAS TENDRAN A LOS QUE ESPERAN EN DIOS
    
    
  • e-------------------------------------------3-----
    B-----------------------------------------3-------
    G-------------------------------------------------
    D---5/5--3-2-3---3-2-0---0-2-3---3-2-0------------
    A-3--------------------3----------------3---------
    E-------------------------------------------------(X2)
    
    VERSO 1:
         C
    // NUEVAS FUERZAS TENDRAN A LOS QUE ESPERAN EN DIOS
    
                             (un toque en G )
    ESPERAREMOS EN DIOS, ESPERAREMOS //
    
       F    G      Am    G     Cm F    C-F   G Am    G
    DIOS REINARA POR SIEMPRE, NUESTRO FUERTE LIBERTADOR
    
    
    CORO:
    
    
  • +
    ¡Colabora con nosotros!
    Envíanos tu versión de esta canción
  • Tutorial
    Tutorial de Guitarra - Infinito Dios - Más Como Jesús
    4:59

Infinito Dios (nuevas fuerzas tendrán) Lyrics
VERSE
Nuevas fuerzas tendrán
Los que esperan en Dios
Esperaremos en Dios, esperaremos
Dios rei na rá por siempre
Nuestro fuerte libertador
Chorus
Eres el Infinito Dios
El infinito Dios
Tu no desmayas, nunca fallas
Defensor de los débiles
Nuestro Consolador
Nos levantaste en alas de águilas
GBU guys
Amendeznavarro@yahoo.com




[Infinito Dios (nuevas fuerzas tendrán) acordes][Infinito Dios (nuevas fuerzas tendrán) cifra]
© LaCuerda.net · legal notice · privacy · es · en · pt · contact us
DINAMICO