Guitar Chords » E »Elim » Satisfecho Estaré (Tab)

Satisfecho Estaré
Elim

Lyrics, Chords & Tabs for Guitar, Bass & Ukulele

  •        B - E - E - G# = Bajo de E
           A - E - E - A - E = Bajo de F#m
           A - D - E - D = Bajo de D
    (la intro se repite lo necesario que ocupen!)
    
    Verso:
    A         E                F#m
     Prefiero   todo lo que das Tú.   [4.4.4.4]
    D                                       A     E
    una sola cosa he pedido al Señor y esta buscaré. (8.4.4)
    A        E               F#m
      Mi      vida eres Tú. Jesús. [4.4.4.4]
    D                                      A         E
    y en tu casa quiero habitar todos los días de mi vida... (8.4.4)
    
    
    Pre-Coro:
             F#m        A           D           E
    Y contemplar tu hermosura. deleitarme sólo en Ti. ..(4.4.4.8)
    
    
  • Intro: A  E/G#  F#m7 D    x2
    
    e-------------------------------------------------------
    B-------10-9----------9-10-----------13--12--10--7---10-
    G-1/2----------1/2------------1/2-----------------------
    D-------------------------------------------------------
    A-------------------------------------------------------
    E-------------------------------------------------------
    
    
    
    
    Estrofa:
    
    MI vida....
    e---------------------------------------------12----------
    B------10-9-----------9-10-----------12--13------13-------
    G-1/2---------1/2------------1/2--------------------------
    D---------------------------------------------------------
    A---------------------------------------------------------
    
  • +
    ¡Colabora con nosotros!
    Envíanos tu versión de esta canción

Satisfecho Estaré Lyrics
Estrofa:
Prefiero todo lo que das Tú.
una sola cosa he pedido al Señor y esta buscaré.
Mi vida eres Tú. Jesús.
y en tu casa quiero habitar todos los días de mi vida...
Pre-Coro:
Y contemplar tu hermosura. deleitarme sólo en Ti. ..
Satisfecho estaré cuando despierte en tu Gloria
y cara a cara pueda verte. contemplarte. adorarte. Rey.
Mucho tiempo esperé pero ese día veré.
tu rostro brillando sobre mí. Mis lagrimas quitarás. mi rostro levantaras.
así yo hago:
Espero que sea de Bendición,
Bendiciones de Ministerios Llamada Final Durango, mex.




[Satisfecho Estaré acordes][Satisfecho Estaré cifra]
© LaCuerda.net · legal notice · privacy · es · en · pt · contact us
DINAMICO