Guitar Chords » E »Elefante » Angel (Tab)

Angel
Elefante

Lyrics, Chords & Tabs for Guitar, Bass & Ukulele

  •  C#m              A
    Te encontré de madrugada
    E          B
    cuando menos lo esperaba
    
           C#m         A
    Cuando no buscaba nada
            E
    te encontre
         C#m         A
    Pregunte con la mirada
           E           B
    tu sonrisa me invitaba
           C#m         A
    Para que tantas palabras
         E
    para que
    
    
    
    
  • Intro   C#m  A  E  G#m    C#m  A  B   (2)
    
    E--------------------------------------------------------------------
    B-4--4s5-5--4--4s5-5--5--9--9-9-9-9-7-7-7s5--4--4s5-5--4--4s5-5-5-4--
    G-4--4s6-6--4--4s6-6--6--9--9-9-9-9-8-8-8s6--4--4s6-6--4--4s6-6-6-4--
    
             C#m         A
    Te encontré, de madrugada,
            E            B
    cuando menos lo esperaba,
            C#m        A
    cuando no, buscaba nada,
              E
    te encontré.
    
    Pregunté, con la mirada,
    tu sonrisa me invitaba,
    para qué tantas palabras,
    para qué?
    
    
  •       Bm
    Te encontre de madrugada
           A
    cuando menos lo esperaba
            G
    cuando no buscaba nada
            D
    te encontre.
    
    
         Bm
    Pregunte con la mirada
           A
    tu sonrisa me invitaba
        G
    para que tantas palabras
          D
    para que.
    
              Bm              A
    
  •           C#m                      A
    E||------------------------|------------------------|
    B||--4----4s--5----5-------|--4----4s--5----5-------|
    G||--4----4s--6----6-------|--4----4s--6----6-------|
    D||------------------------|------------------------|
    A||------------------------|------------------------|
    E||------------------------|------------------------|
    
              E                        B
    |-------------------------|-------------------------|
    |--5s--9--9-------9----9--|-----9--9--5----5--5-----|
    |--6s--9--9-------9----9--|-----9--9--6----6--6-----|
    |-------------------------|-------------------------|
    |-------------------------|-------------------------|
    |-------------------------|-------------------------|
    
            C#m                      A
    |------------------------|------------------------|
    |--4----4s--5----5-------|--4----4s--5----5-------|
    |--4----4s--6----6-------|--4----4s--6----6-------|
    
  • 0:00-0:26
    Intro
    G|----------------------|----------------------|
    D|----------------------|----------------------|
    A|-4-44---------------22|-4-44------2-22~/6666-| X2
    E|-----5-55-0-00-2020---|-----5-55-------------|
    
    0:28-0:42
    Te encontré de madrugada... hasta: te encontré.
    G|----|----|----|----|
    D|----|----|----|----|
    A|-4--|----|----|-2--| x2
    E|----|-5--|-0--|----|
    
    0:42-0:56
    Pregunte con la mirada... hasta: para que tantas palabras, para que.
    G|--------|----|-----|----|---------|----|----|----|
    D|--------|----|-----|----|---------|----|----|----|
    A|-4~/66/0|----|-----|-2--|-4~/66/0-|----|----|-2--|
    E|--------|-5--|-0-00|----|---------|-5--|-0--|----|
    
    0:56-1:10
    Y yo que me pasaba noches, días... hasta besos de papel.
    G|-----|----------|------|----------|-----------|-----------|
    D|-----|----------|------|----------|-----------|-----------|
    A|-2-22|-2-22/8/4-|-4—-4-|-4-44/8/4-|-----------|-----------|
    E|-----|----------|------|----------|-5-55-5-55-|-0-00-0-00-|
    
    1:10-1:24
    Y yo que
  • +
    ¡Colabora con nosotros!
    Envíanos tu versión de esta canción
  • Tutorial
    HD
    Como tocar ANGEL en guitarra - Elefante [Tutorial Somos Posers]
    8:34

Angel Lyrics
Te encontre de madrugada
cuando menos lo esperaba
cuando no buscaba nada
te encontre.
Pregunte con la mirada
tu sonrisa me invitaba
para que tantas palabras
para que.
Y yo que me pasaba noches días
entre amores de mentiras
entre besos de papel
y yo que no creía en cuentos de hadas
ni en princesas encantadas
no me pude defender.
Y eres tu solo tu
la que me lleva a la luna
la que calma mi locura
la que me quema la piel
y eres tu siempre tu
angel de la madrugada
el tatuaje de mi alma
para siempre te encontre
*** Intro ***
-> Y se repite el mismo patron de notas.
Me colgue de tu mirada
me quede con tu sonrisa
si te vas no existe nada
si te vas
Y ahora se solo se
te cruzaste en mi camino
encontre el paraíso
y me quede.
Y yo que no creía en cuentos de hadas
ni en princesas encantadas
no me pude defender.
Y eres tu solo tu
la que me lleva a la luna
la que calma mi locura
la que me quema la piel
y eres tu siempre tu
angel de la madrugada
el tatuaje de mi alma
para siempre te encontre




[Angel acordes][Angel cifra]
© LaCuerda.net · legal notice · privacy · es · en · pt · contact us
DINAMICO