Guitar Chords » D »Duo Ayacucho » Contigo yo aprendí (Tab)

Contigo yo aprendí
Duo Ayacucho

Lyrics, Chords & Tabs for Guitar, Bass & Ukulele

  • LAm          DO              MI    LAm
    Contigo aprendí a querer sin condición  [bis]
    DO                SOL  DO FA        SOL  DO  
    no hay barrera en el amor me dijiste un día
                SOL  DO              MI    LAm
    pero si embargo hoy te olvidaste ya de mi 
    
    lAm             DO              MI    LAm
    Ayacuhana de mi amor yo no se lo que paso
                     DO              MI    LAm
    huamanguinita de amor yo no se lo que paso
    DO              SOL  DO  FA            SOL  DO
    despues de tanta ilusión lo nuestro ya se acabó
                 SOL   DO               MI    LAm
    y de aquel inmenso amor recuerdos solo quedan
    
    FUGA
    
    DO               SOL   DO   FA             SOL   DO
    No se que cosa me has hecho no se que cosa yo tendré
    
  • DOdee4--------------------055500--------------------
    DO6-----------------------012230--------------------
    MImaj7--------------------001120--------------------
    FA7-----------------------112131--------------------
    SOL-----------------------330023--------------------
    
    
    Saludos para Lisbeth
    Desde el PERÚ
    CUSCO-CIUDAD IMPERIAL
    Capital arqueologica del sudamerica
    Ombligo del mundo
    ----------------------------------------------------
    No se olviden clik en calidad
    ----------------------------------------------------
    
    DO6          DOdee4          MImaj7 DO6
    Contigo aprendí a querer sin condición
    DO6          DOdee4          MImaj7 DO6
    Contigo aprendí a querer sin condición.
    
  •   Am              C               E     Am
      Contigo yo aprendí a querer sin condición  [bis]
      C                G    C   F          G   C
     /no hay barrera en el amor me dijiste un día
                G     C                E     Am
      pero si embargo hoy te olvidaste ya de mi / (Bis)
    
    __
                                                       muchas veces
    _ 1|------------------------------------------------------------
    _)2|--5-3h5-------5-3h5-----------------------------------------
      3|--------1-2---------1-2----------1-2-----------1-2-2....----
    _ 4|-------------------------2-0-0-2-------2-0-0-2--------------
    _)5|------------------------------------------------------------
      6|------------------------------------------------------------
    __/
    
     Am              C                E    Am
     Ayacuhana de mi amor yo no se lo que paso
                          C               E    Am
    
  • B:-------------9-10-|---------7-9-10-|
    G:------------------|---9-7-9--------|
    D:------------------|----------------|
    A:------------------|----------------|
    E:------------------|----------------|
    
    Contigo yo aprendi.....
                     (x2)
    E:------------------------------------|
    B:-----------1-1-3h5-3h5-55555-3------|
    G:-----22222---------------------1-2--|
    D:---2--------------------------------|
    A:------------------------------------|
    E:------------------------------------|
    
    No hay manera en el amor .........
    E:-----------------------------------|------------------------------------|
    B:3h5-55555-3-1-3h5---11111-1h3-1--1-|3h5-55555-3-1-3h5---11111-3h5-3-----|
    G:------------------2------------ 2--|------------------2-------------1-2-|
    D:-----------------------------------|------------------------------------|
    
  • +
    ¡Colabora con nosotros!
    Envíanos tu versión de esta canción

Contigo yo aprendí Lyrics
Contigo aprendí a querer sin condición [bis]
no hay barrera en el amor me dijiste un día
pero si embargo hoy te olvidaste ya de mi
Ayacuhana de mi amor yo no se lo que paso
huamanguinita de amor yo no se lo que paso
despues de tanta ilusión lo nuestro ya se acabó
y de aquel inmenso amor recuerdos solo quedan
FUGA
No se que cosa me has hecho no se que cosa yo tendré
de día te voy mirando de noche te voy soñando. [bis]
Esta canción se la dedico a una persona especial
que aunque pase el tiempo siempre vivira en mi corazón.
DULCE, música para mis oídos.
cualquier información
guitarranc@hotmail.com
Ayacucho - Perú




[Contigo yo aprendí acordes][Contigo yo aprendí cifra]
© LaCuerda.net · legal notice · privacy · es · en · pt · contact us
DINAMICO