Guitar Chords » D »Don Moen » Profundo amor (Tab)

Profundo amor
Don Moen

Lyrics, Chords & Tabs for Guitar, Bass & Ukulele

  • RE
    Hay un anhelo
             SOL    LA     SIm
    Que solo tu puedes llenar
    F#m
       Una tormenta
             SOL           LA
    Que solo tu puedes calmar
    SIm
       Sediento estoy Señor
         SOL
    Por conocerte mas
    MIm            FA#m
       Y beber del rio
          SOL       LA
    Que fluye ante ti
    
    Coro:
             RE   (FA#m) SIm
    Quiero amarte
    
  •      D2 Gmaj9 A/G |D2/F#  Em9 A7sus
    
    e|----0-2--2--0--|-----0-2--2--0---
    B|---3-----3--2--|----3-----3--3---
    G|--2------2--2--|---2------0--0---
    D|-0-------x--2--|----------2--2---
    A|---------x--0--|-------------0---
    E|---------3--3--|-2---------------
    
    Riff 1           riff 2
    
    e|--9/10----     e|--10--9-----------
    B|--9/10----     B|---------12-10/12-
    
    (*)              riff 3
    e|--------       e|----10/12-10-9-7--
    B|-3-5/7-        B|-10---------------
    
    Verso 1
    
    
  • +
    ¡Colabora con nosotros!
    Envíanos tu versión de esta canción

Profundo amor Lyrics
Hay un anhelo
Que solo tu puedes llenar
Una tormenta
Que solo tu puedes calmar
Sediento estoy Señor
Por conocerte mas
Y beber del rio
Que fluye ante ti
Quiero amarte
Con el mas profundo amor
Acercate oh Cristo y abrazame
Quiero amarte
Mas profundamente, oh Señor
Mas de lo que antes te amé
Hoy te quiero amar
Con el mas profundo amor
Cada mañana
Señor te buscaré
Y por tu Espiritu
Tu Gracia encontraré
En ti he encontrado
Esperanza eterna
En Tu Presencia
Por siempre estaré
Quiero Amarte...




[Profundo amor acordes][Profundo amor cifra]
© LaCuerda.net · legal notice · privacy · es · en · pt · contact us
DINAMICO