Guitar Chords » D »DLD » Sigo siendo yo (Tab)

Sigo siendo yo
DLD

Lyrics, Chords & Tabs for Guitar, Bass & Ukulele

  • Intro: D# Cm
           D# Cm
    Rif:
    E--------3--------------3-----------6--3-----|
    B--4--6-----6-----4--6-----6--4--6--------4--|x4
    
    
       D#                               Cm
      Y hubo días que nos pasaron de largo
       D#                                      Cm
      y otros que ahí se quedaron en el calendario
    G#                G#m.              D#        Cm
      si llovía en enero es por que lo quisimos así
            G#           A#     D#
      pero al final sigo siendo yo
    
       Rif
    
       D#                                  Cm
      Y hubo días que nos pasaron la cuenta
    
  • INTRO:  D#5 - C5 - D#5 - C5    Riff x 4
    
    D#5     C5                      Riff
    |--x   |--x                    |--------------|-------------|-----------------|
    |--x   |--x                    |--------8-----|--------8----|--------11--8----|
    |--8   |--x                    |--8--10---10--|--8--10---10-|--8--10-------8--|
    |--8   |--10                   |--------------|-------------|-----------------|
    |--6   |--10                   |--------------|-------------|-----------------|
    |--x   |--8                    |--------------|-------------|-----------------|
    
    
    
    
    VERSO - D#5 se toca sólo la sexta cuerda en el traste 11 con palm mute
    
    G#       G#m    D#5    C5     G#5    A#5   D#sus4
    |--8    |--7   |--x   |--x   |--x   |--x   |--x
    |--9    |--9   |--x   |--x   |--x   |--x   |--9
    |--8    |--8   |--8   |--5   |--x   |--x   |--8
    |--10   |--x   |--8   |--5   |--6   |--8   |--8
    
  • +
    ¡Colabora con nosotros!
    Envíanos tu versión de esta canción
  • Tutorial
    HD
    Como Tocar Sigo Siendo Yo - DLD [Tutorial Guitarra]
    6:29

Sigo siendo yo Lyrics
Rif:
Y hubo días que nos pasaron de largo
y otros que ahí se quedaron en el calendario
si llovía en enero es por que lo quisimos así
pero al final sigo siendo yo
Rif
Y hubo días que nos pasaron la cuenta
y otros que nos dejaron ventanas abiertas
si nos fuimos juntos fue por que lo quisimos así
pero al final sigo siendo yo
Y siento cada vez otro gira en mi cuerpo
y siento que el amor se define en el hoy
no juzgaran y juzgaremos por que el mundo es así
pero al final sigo siendo yo
Rif x4
Y hubo días que nos pasaron la cuenta
y otros que nos dejaron ventanas abiertas
si nos fuimos juntos fue por que lo quisimos así
pero al final sigo siendo yo
Y siento cada vez otro gira en mi cuerpo
y siento que el amor se define en el hoy
no juzgaran y juzgaremos por que el mundo es así
pero al final sigo siendo yo
pero al final sigo siendo yo
Rif x4




[Sigo siendo yo acordes][Sigo siendo yo cifra]
© LaCuerda.net · legal notice · privacy · es · en · pt · contact us
DINAMICO