Guitar Chords » D »DLD » Reencuentro (Tab)

Reencuentro
DLD

Lyrics, Chords & Tabs for Guitar, Bass & Ukulele

  • Em-Bm-Dm-Am
    
        Em            Bm            Dm      Am
    ||---------------------------------------------------------||
    ||---------------------------------------------------------||
    ||---12-12-12-12-12-12-11-9-7----7---7---7---7-7h9-9--7/---||
    ||-----------------------------9---9---9---9---------------||
    ||---------------------------------------------------------||
    ||---------------------------------------------------------||
    
       Em             Bm            Dm      Am
    ||---------------------------------------------------------||
    ||---------------------------------------------------------||
    ||--/12-12-12-12-12-12-11-9-7----7---7---7---7-7h9-9--7/---||
    ||-----------------------------9---9---9---9---------------||
    ||---------------------------------------------------------||
    ||---------------------------------------------------------||
    
    
    Em        Bm              Dm      Am
    
  • +
    ¡Colabora con nosotros!
    Envíanos tu versión de esta canción

Reencuentro Lyrics
Nadie nos dijo ni cómo ni cuando
Y lo de en medio es todo nuestro
Lapidas grises, instantes pequeños
Donde reposan los sentimientos
Tuvimos momentos de pena y de gloria
Que se grabaron en la memoria
Y aunque la muerte se extenuó
Acecina sin dejar una lección
La de estar juntos.
Nos volveremos a ver, descuida
Si no es esta es en otra vida
Dale un momento y nos volvemos a encontrar
Nos volveremos a ver
Tarde o temprano
Y por eso somos humanos
Dale un momento y nos volvemos a encontrar
Nadie nos dijo final o comienzo
Y lo de en medio es todo nuestro
Y aunque la muerte se extenuó
Acecina sin dejar una lección
La de estar juntos.
Nos volveremos a ver, descuida
Si no es esta es en otra vida
Dale un momento y nos volvemos a encontrar
Nos volveremos a ver
Tarde o temprano
Y por eso somos humanos
Dale un momento y nos volvemos a encontrar
Nos volveremos a ver, descuida
Si no es esta es en otra vida
Dale un momento y nos volvemos a encontrar
Nos volveremos a ver
Tarde o temprano
Y por eso somos humanos
Dale un momento y nos volvemos a encontrar
Nos volveremos a ver, descuida
Si no es esta es en otra vida
Dale un momento y nos volvemos a encontrar
Nos volveremos a ver
Tarde o temprano
Y por eso somos humanos
Dale un momento y nos volvemos a encontrar
Siganme en: Twitter.com/ElOtroRou




[Reencuentro acordes][Reencuentro cifra]
© LaCuerda.net · legal notice · privacy · es · en · pt · contact us
DINAMICO