Guitar Chords » D »Divididos » La flor azul (Tab)

La flor azul
Divididos

Lyrics, Chords & Tabs for Guitar, Bass & Ukulele

  • F#7 Bm(X3)    despues va el punteo o pueden hacerla solos la cancion con los
    
                       acordes que estan abajo del punteo
    
    e------10-10---8-8----7---5---4--5
    B---------------------------------
    G----10------9------7---5---4----5
    D---------------------------------
    A---------------------------------
    E---------------------------------
    Em   Bm   F#7  Bm  (x2)
    
    Bm
    Que solo me voy quedando
    Em          Bm
    mi viejo tunal
    Em         Bm
    oyendo cantar al río
    F#7          Bm
    para el carnaval.
    
  • e---------2-----1-----0---------------2------1-----1-----------
    B-----------3-----3-----3---------------3------3-----3---------
    G-------------0-----0-----0---------------0------0-----0-------
    D--------------------------------------------------------------
    A-0h2h0----------------------0h2h0-----------------------------
    E-------2--------------------------2---------------------------
    
    e---------2-----1-----0---------------2------1-----1-----------
    B-----------3-----3-----3---------------3------3-----3---------
    G-------------0-----0-----0---------------0------0-----0-------
    D--------------------------------------------------------------
    A-0h2h0----------------------0h2h0-----------------------------
    E-------2--------------------------2---------------------------
    
    Ahora entra el violín de Peteco y se repite el intro
    
    e---------2-----1-----0---------------2------1-----1-----------
    B-----------3-----3-----3---------------3------3-----3---------
    G-------------0-----0-----0---------------0------0-----0-------
    D--------------------------------------------------------------
    
  • +
    ¡Colabora con nosotros!
    Envíanos tu versión de esta canción

La flor azul Lyrics
acordes que estan abajo del punteo
Que solo me voy quedando
mi viejo tunal
oyendo cantar al río
para el carnaval.
Me acompaña la esperanza
en la soledad
cuando silva el huairamuyo
por el salitral.
Árbol fuiste bien coposo,
pobre corazón,
árbol que quedo sin hojas
sin nido, ni amor.
Dile, dile chacarera
a esa flor azul
que de noche yo la busco
por la cruz del sur.
Esa pena enamorada
pena sin cesar
buscando volverse copla
pa' hacerme llorar.
Amalhaya con la suerte
que a mi me ha tocao
cantar por cantar, cantando
sin ser escuchao.
Cuando recuerdo sus ojos
de dulce mirar,
me acomodo con mi perro
solito a pitar.
Dile, dile chacarera
este es mi penar
que vidala es me vuelve
para el carnabal.




[La flor azul acordes][La flor azul cifra]
© LaCuerda.net · legal notice · privacy · es · en · pt · contact us
DINAMICO