Guitar Chords » D »Dildo » 1┬║ de octubre (Tab)

1┬║ de octubre
Dildo

Lyrics, Chords & Tabs for Guitar, Bass & Ukulele

  •                 Am
    e|- - - - - - - - - - - - - - - - - - - - -|
    B|- - - - - - - - - - - 1 1- - - - - - -   |
    G|- - - - - - - -2 2-  - - - 2 2- - - -    |
    D|- - - - 2 2- - - - - - - - - - - -2 2-   |
    A|- - - - - - - - - - - - - - - - - - - - -|
    E|- - - - - - - - - - - - - - - - - - - - -|
    
    e|- - - - - - - - - - - - - - - - - - -- - -|
    B|- - - - - - - - - - 0 0- - - - - - - -- - |
    G|- - - - - - 1 1- - - - - - 1 1- - - -   - |
    D|- - -2 2- - - - - - - - - - - - - 2 2- - -|
    A|- - - - - - - - - - - - - - - - - -   - - |
    E|- - - - - - - - - - - - - - - - - - - - - |
    
    
    
    
       Am       E          Am       E
    ma├▒ana hermosa, negro atardecer,
    
  •      Am
    e |--------------------|
    B |-----------2-2------|
    G |-------2-2-----2-2--|
    D |--------------------|   X7
    A |---0-0--------------|
    E |--------------------|
    
         E
    e |--------------------|
    B |-----------0-0------|
    G |-------1-1-----1-1--|   x4
    D |--------------------|
    A |---2-2--------------|
    E |--------------------|
    
         Am
    e |--------------------|
    B |-----------2-2------|
    G |-------2-2-----2-2--|
    
  • +
    ¡Colabora con nosotros!
    Env├şanos tu versi├│n de esta canci├│n

1┬║ de octubre Lyrics
e|- - - - - - - - - - - - - - - - - - - - -|
B|- - - - - - - - - - - 1 1- - - - - - - |
G|- - - - - - - -2 2- - - - 2 2- - - - |
D|- - - - 2 2- - - - - - - - - - - -2 2- |
A|- - - - - - - - - - - - - - - - - - - - -|
E|- - - - - - - - - - - - - - - - - - - - -|
G|- - - - - - 1 1- - - - - - 1 1- - - - - |
D|- - -2 2- - - - - - - - - - - - - 2 2- - -|
A|- - - - - - - - - - - - - - - - - - - - |
E|- - - - - - - - - - - - - - - - - - - - - |
ma├▒ana hermosa, negro atardecer,
cuerpo de diosa, terquedad de mujer.
y tomamos turnos para herirnos mucho
y decir que nada importa
y tomamos turnos para vernos juntos
y decir que todo va a estar bien.
Se repite el intro
ma├▒ana rosa, negro atardecer
tu pides lo que nunca has dado
no lo puedes tener.
y tomamos turnos para herirnos mucho
y decir que nada importa
y tomamos turnos para vernos juntos
y decir que todo va a estar bien
pero esta desecho
y hoy no queda nada por hacer.
A|- - - - - - - - - - -5- - - -7-|
y tomamos turnos para herirnos mucho
y decir que nada importa
y tomamos turnos para vernos juntos
y decir que todo va a estar bien
pero esta desecho
y hoy no queda nada nada por hacer
el E5 lo pueden hacer en el traste 7 de la 5┬║ cuerda suena mejor




[1┬║ de octubre acordes][1┬║ de octubre cifra]
© LaCuerda.net · legal notice · privacy · es · en · pt · contact us
DINAMICO