Guitar Chords » D »Despistaos » Estrella (Tab)

Estrella
Despistaos

Lyrics, Chords & Tabs for Guitar, Bass & Ukulele

  • RE                    LA 
    Estrella se pinta de blanco el pelo
    SOL 
    y dice que se siente vieja.
    RE                   LA 
    Vuelve a cantar la canción que ella piensa
    SOL 
    que alguien le escribió.
    RE                    LA 
    Finge que ignora el reloj,
                               SOL 
    ya son más de las nueve y la mesa puesta.
    RE                      LA 
    Llora un momento y la tele
    SOL 
    se ríe de ella.
    
    SIm       LA         SOL 
    Una vez le prometió:
    SIm        LA         SOL 
    
  • D              A                  G
    Estrella se pinta de blanco el pelo y dice que se siente vieja.
    D              A                  G
    Vuelve a cantar la canción que ella piensa que alguien le escribió.
    D              A                  G
    Finge que ignora el reloj, ya son más de las nueve y la mesa puesta.
    D                A              G
        Llora un momento y la tele se ríe de ella.
    
    Em        A        G
         Una vez le prometió:
    Em        A        G
         tú serás siempre mi estrella.
    
    D              A                          G
    Estrella se inventa que vuelve a ser ella y luego siempre se despierta.
    
    Lleva ya casi ocho meses sin saber qué es el amor.
    Se mira en ropa interior y pensándolo bien no se ve tan fea.
    Vuelve a ignorar el reloj cuando suena la puerta.
    
  • -----
    
    Buenas, aquí mi primera tablatura. Esta sacada a oído con el solo
     incluido, si teneis alguna duda: magicguitars@gmail.com
    
    Los acordes son D, Fm#7, G. Y luego cambia a Bm, A, G.
    
    Intro:
        D            F#m7            G
    E|-------3/2--------------------------3--3---3----|
    B|------2-----3-----------0-----------3---3---3--2|
    G|-----2-------2----------2----------------0---0--|
    D|---0-----------------2-----2------0-------------|
    A|------------------------------------------------|
    E|------------------2-------------3---------------|
    
    Y lo repite, pero haciendo una pequeña modificación en Sol.
    
        D             F#m7            G
    E|-------3/2---------------------------------3---|
    
  • Aquí pongo el solo de Estrella que me extraña que no estuviera ya.
    Puntuarla por favor...
    
    E|--5--5-5--5--5-3-5-5-5-5--5--5-5--|
    B|--3--3-3--3--3-3-3-3-3-3--3--3-3--|
    G|----------------------------------|
    D|----------------------------------|
    A|----------------------------------|
    E|----------------------------------|
    
    E|--3--3-3--3--3-2-3-3-3-3--3--3-3--|
    B|--3--3-3--3--3-3-3-3-3-3--3--3-3--|
    G|----------------------------------|
    D|----------------------------------|
    A|----------------------------------|
    E|----------------------------------|
    
    E|--10--10-10--10-10-10-12--12-12--12-12-12--|
    B|--10--10-10--10-10-10-10--10-10--10-10-10--|
    G|-------------------------------------------|
    D|-------------------------------------------|
    A|-------------------------------------------|
    E|-------------------------------------------|
    
    E|--10--10-10--10-10-10-9--10-10-10--10-10-10--|
    B|--10--10-10--10-10-10-10-10-10-10--10-10-10--|
    G|---------------------------------------------|
    D|-----------------
  • +
    ¡Colabora con nosotros!
    Envíanos tu versión de esta canción

Estrella Lyrics
Estrella se pinta de blanco el pelo
y dice que se siente vieja.
Vuelve a cantar la canción que ella piensa
que alguien le escribió.
Finge que ignora el reloj,
ya son más de las nueve y la mesa puesta.
Llora un momento y la tele
se ríe de ella.
Una vez le prometió:
tú siempre serás mi estrella.
Estrella se inventa que vuelve a ser ella
y luego siempre se despierta.
(sigue igual)
Lleva ya casi ocho meses
sin saber qué es el amor.
Se mira en ropa interior y pensándolo bien
no se ve tan fea.
Vuelve a ignorar el reloj
cuando suena la puerta.
Una vez le prometió:
tú siempre serás mi estrella.
Y la estrella se apagó.
Vuelve a iluminarte
Estrella, escondida en un cajón.
Estrella, o dentro de una botella.
Estrella, siempre la misma canción,
llorando sin ton ni son.
Vuelve a iluminarte, Estrella.
(sigue como antes)
Ya no es el que prometió:
tú siempre serás mi estrella...
Estrella, escondida en un cajón
Estrella, o dentro de una botella.
Estrella, siempre la misma canción,
llorando sin ton ni son.
Vuelve a iluminarte, Estrella.
¡Vuelve a iluminarte Estrella!
¡Vuelve a iluminarte Estrella!
Siempre la misma canción,
llorando sin ton ni son.
¡Vuelve a iluminarte Estrella!
Asi es creo la version original;si quereis en los versos podeis
añadir un Sim entre el laM y el SolM para completar,aunque eso
es ya de mi cosecha. XD
*Es mi primera tablatura, cualquier correccion enviadmela a
Manuelt11@hotmail.com.
Se la dedico a mi niña por ser mi estrella y a Elsa por iluminar
el camino hasta ella.




[Estrella acordes][Estrella cifra]
© LaCuerda.net · legal notice · privacy · es · en · pt · contact us
DINAMICO