Guitar Chords » D »Denisse de Kalafe » Señora (Tab)

Señora
Denisse de Kalafe

Lyrics, Chords & Tabs for Guitar, Bass & Ukulele

  •         |---2-----3-----------3--2-----0------| 
            |-----3------3-------------3----------| 
            |-------2------2-------------2--------| 
            |-------------------------------------| 
            |-------------------------------------| 
            |-------------------------------------| 
    
    
    
    RE                   FA#m               SIm        LAm  RE7
    A ti que me diste tu vida, tu amor y tu espacio
    SOL                       LA7               RE      LAm  RE7
    A ti que cargaste en tu vientre dolor y cansancio
    SOL                   LA7
    A ti que peleaste con uñas y dientes
       FA#m                     SIm
    Valiente en tu casa y en cualquier lugar
    SOL                   MIm
    A ti rosa fresca de abril
    LA7
    
  • F   Bbm  F F    F   Bbm    F
    
    F                     A-7              Dm             D-7
    A ti que me diste tu vida, tu amor y tu espacio
    
    Bbm                      C-7              F
    A ti que cargaste en tu vientre dolor y cansancio
    Bbm                    C-7
    A ti que peleaste con uñas y dientes
     A-7                       Dm
    Valiente en tu casa y en cualquier lugar
    Bbm
    A ti rosa fresca de abril
     C-7
    A ti mi fiel querubin
    
     F                   A-7                  Dm          D-7
    A ti te dedico mis versos, mi ser, mis victorias
    Bbm                C-7               F
    A ti mis respetos Señora, Señora, Señora
    
  •     D
    e|--2p0----3---------2p0----0-----------|
    B|------3----3---3-------3-----3---3----|
    G|-------------2-----------------2------|
    D|--0------0---------0------0-----------|
    A|--------------------------------------|
    E|--------------------------------------|
    
    Riff 1 (guitarra 1)
        D
    e|----------------------------------|
    B|--10-8-7--12-----10-8-7--8--------|
    G|----------------------------------|
    D|----------------------------------|
    A|----------------------------------|
    E|----------------------------------|
    
    CORO I
       D                  F#7                   Bm   B7sus4 B7
    A ti que me diste tu vida, tu amor y tu espacio,
    
  • e|---2-2-2-2-2-2-2-0-2-3-2-2-0--|--7-7-7-7-7-7-7-5-0-0-2-3-3-2|2-0|
    b|-----------------------------3|-----------------------------|---|
    g|-2----------------------------|7----------------------------|---|
    d|------------------------------|-----------------------------|---|
    a|------------------------------|-----------------------------|---|
    e|------------------------------|-----------------------------|---|
    
    
    
    e|--------------2-0---2-0-|-0-3-2-0-3-2-2-0---|---2-0---2-0-------|
    b|3-0-0-0-0-2-3-----3-----|-----------------3-|-0-----3-----0-3-2-|
    g|------------------------|-------------------|-------------------|
    d|------------------------|-------------------|-------------------|
    a|------------------------|-------------------|-------------------|
    e|------------------------|-------------------|-------------------|
    
    
    
    e|-------------|
    b|-2-2-3-5-5-3-|
    
  • e--0-7-7-7-7-7-7-7-5-7-8-7-5-3
    B-----------------------------
    G-----------------------------
    D-----------------------------
    A-----------------------------
    E-----------------------------
    
    
    e--3-12-12-12-12-12-12-12-10-5-5-7-8-8-7
    B---------------------------------------
    G---------------------------------------
    D---------------------------------------
    A---------------------------------------
    E---------------------------------------
    
    e-3-0-0-0-0-2-3-7-5-3-7-5-8-8-7-5-8-7-5-8-7-7-3
    B----------------------------------------------
    G----------------------------------------------
    D----------------------------------------------
    A----------------------------------------------
    
  • +
    ¡Colabora con nosotros!
    Envíanos tu versión de esta canción
  • Tutorial
    Como tocar señora señora-denise kalafe-guitarra facil
    12:59

Señora Lyrics
A ti que me diste tu vida, tu amor y tu espacio
A ti que cargaste en tu vientre dolor y cansancio
A ti que peleaste con uñas y dientes
Valiente en tu casa y en cualquier lugar
A ti rosa fresca de abril
A ti mi fiel querubin
A ti te dedico mis versos, mi ser, mis victorias
A ti mis respetos Señora, Señora, Señora
A ti, mi guerrera invencible
A ti, luchadora incansable
A ti, mi amiga constante de todas las horas
Su nombre es un nombre comun, como las Margaritas
Siempre mi poca presencia constante en mi mente
Y para no hacer tanto alarde
Esa mujer de quien hablo
Es linda mi amiga, gaviota
Su nombre es: mi Madre
A ti que me diste tu vida tu amor y tu espacio
A ti que guardaste en tu vientre dolor y Cansancio
A ti que peleaste con uñas y dientes
Valiente en tu casa y en cualquier lugar
A ti, rosa fresca de abril
A ti, mi fiel querubin
A ti te dedico mis versos, mi ser, mis victorias
A ti mis respetos Señora, Señora, Señora
Y para no hacer tanto alarde
De esa mujer de quien hablo
Es linda mi amiga, gaviota
Su nombre es: mi Madre




[Señora acordes][Señora cifra]
© LaCuerda.net · legal notice · privacy · es · en · pt · contact us
DINAMICO