Guitar Chords » D »Los de Adentro » una Canción (Tab)

una Canción
Los de Adentro

Lyrics, Chords & Tabs for Guitar, Bass & Ukulele

  • INTRO C G Am F
          C G F G
          C G F G
    
    
    
    C            G            Am 
    Hay unas que llegan al alma
                F
    que te hacen mover las palmas
    C           G         F     G
    otras te llegan al corazón
    C           G            Am
    hay unas que se necesitan
                  F
    otras que nunca se olvidan
    C        G        F        G
    que te hacen despertar pasión
    
    
    
  • E B G D A E  quedan asi  D# A# F# C# G# D#
    Por eso yo subi la cancion con el tono menor.
    
    - LA solucion es:
    
    1- Afinar Tu guitarra con la afinacion antes dicha.
    2- O tocarla asi:
    
    
    B            F#
      Hay unas que llegan al alma
     G#m            E
    que te hacen mover las palmas
    B           F#        E       F#
    otras te llegan al corazón    oooh
    B           F#
      hay unas que se necesitan
    G#m          E
    otras que nunca se olvidan
    B                 F#   E        F#
    
  • Intro: DO -SOL-LAm - FA SOl(x2)
    Esta introduccion es arpegeada con la sexta, tercera, segunda y primera 
    cuerda. El cambio de Fa a Sol son mas rapidas y solo la sexta, tercera 
    y segunda cuerda se suenan.
    
    
     A)
     DO               SOL
     Hay unas que llegan al alma
     LAm          FA           SOL
     que te hacen mover las palmas
     DO         SOL        LAm     FA SOL
     Otras que llegan al corazón (ohoh)
    
     A)
     Hay unas que se necesitan 
    
     Otras que nunca se olvidan 
    
     Que te hacen despertar pasión  [ohoh]
    
  • INTRO A E F#m D
          A E D E
          A E D E
    
    
    A            E            F#m
    Hay unas que llegan al alma
                D
    que te hacen mover las palmas
    A           E         D     E
    otras te llegan al corazón
    A           E            F#m
    hay unas que se necesitan
                  D
    otras que nunca se olvidan
    A        E        D        E
    que te hacen despertar pasión
    
    
               A            E
    
  • INTRO C G Am F
          C G F G
          C G F G
    
    
    
    C            G
    Hay unas que llegan al alma
    Am             F
    que te hacen mover las palmas
    C           G         F     G
    otras te llegan al corazón
    C          G
    hay unas que se necesitan
    Am          F
    otras que nunca se olvidan
    C             G            F  G
    que te hacen despertar pasión
    
    
    
  • E--------0-------------0--------------------3/5/3p0------------------------
    B--1--3----1--1--3p1------1-----------3-----3/5/3p0-0--1--------------0--1p
    G----------------------------0-----0-----0----------0--2--2--------2-------
    D---------------------------------------------------0--2--------0----------
    A--0--2--3---------------------------------------------------2-------------
    E-------------------------------3------------------------------------------
    
    E--------------1-----------------3--0--3--------3-----------------0--------
    B-----------------1--3--1-----------------3--------3-----------1-----1-----
    G-----3-----3--------------0-----------------0--------0-----2-----------2--
    D--------2--------------------2--------------------------------------------
    A-----------------------3--------------------------------0-----------------
    E--1-----------------------------------3-----------------------------------
    
    E-----------------1-----------------------3-----------------------0--------
    B--1-----------1-----1-----1-----------3-----3-----3-----------1-----1-----
    G-----2-----2-----------2-----2-----0-----------0-----0-----0-----------0--
    D--------------------------------------------------------------------------
    A--------------------------------------------------------3-----------------
    E--------1-----------------------3-----------------------------------------
    
  • bajo:      E B G D A E  quedan asi  D# A# F# C# G# D#
    
    Tienen dos opciones:
    1- Afinar la guitarra con la afinación antes dicha y tocar estos acordes
       1/2 tono arriba.
    2- O tocarla así, sin cambiar la afinación de nuestra guitarra:
    
    
    B            F#
      Hay unas que llegan al alma
     G#m            E
    que te hacen mover las palmas
    B           F#        E       F#
    otras te llegan al corazón    oooh
    B           F#
      hay unas que se necesitan
    G#m          E
    otras que nunca se olvidan
    B                 F#   E        F#
    que te hacen despertar pasión   oooh
    
  • +
    ¡Colabora con nosotros!
    Envíanos tu versión de esta canción

una Canción Lyrics
Esta introduccion es arpegeada con la sexta, tercera, segunda y primera
cuerda. El cambio de Fa a Sol son mas rapidas y solo la sexta, tercera
y segunda cuerda se suenan.
Hay unas que llegan al alma
que te hacen mover las palmas
Otras que llegan al corazón (ohoh)
Hay unas que se necesitan
Otras que nunca se olvidan
Que te hacen despertar pasión [ohoh]
Oyendo una canción para ti para mi
Y que nos llegue al pensamiento
Para vivir y expresar todo lo que yo siento
Quiero tenerte , te dedico esta canción
Todo comenzó con un vaso
Un trago caro y escaso
Que me subió a la desolación (ohho)
Oyendo al grupo del bar tocar mi favorita
Se me subió la desesperación
Oyendo una canción....
Punteo en Arpegio (Do-Sol-Lam-Fa-sol) x2
Perdiendo el tiempo pensando en ti
Yo se que nunca vas a regresar a mi...
Una canción para ti para mi
Y que nos llegue al pensamiento
Para vivir y expresar todo lo que yo siento
Hoho....oh............oh.............oh...........
Una canción
Transcrito por: Rober Delpiero
Roberam @ honduras.com




[una Canción acordes][una Canción cifra]
© LaCuerda.net · legal notice · privacy · es · en · pt · contact us
DINAMICO