Guitar Chords » D »Dareyes de la Sierra » Hasta el día de hoy (Tab)

Hasta el día de hoy
Dareyes de la Sierra

Lyrics, Chords & Tabs for Guitar, Bass & Ukulele

  • Cm  F  Bb  Gm  Cm  F  Bb
                      Cm
    Hasta el día de hoy
    F                  Bb
    Yo te ame no lo niego
                     Cm
    Hasta el dia de hoy
                     F
    porque ya me canse de ser
                  Bb
    Siempre tu juego
    
                     Cm
    Que te perdone Dios
    F                  Bb
    Porque yo, yo no puedo
                    Cm                  F
    Tu mataste el amor, ya no sigas llorando
                                    Bb
    Y otros brazos me están esperando
    
  •                  Bm-E7                 A
    Hasta el dia de hoy, yo te ame no lo niego
                     Bm                 E7                      A
    hasta el dia de hoy por que ya me canse de ser siempre tu juego
                   Bm-E7                     A
    Que te perdone Dios, por que yo, yo no puedo
                   Bm                     E7    [PAUSA]
    Tu mataste el amor, ya no sigas llorando...
                                 A
    ya otros brazos me estan esperando
    
                 Bm                   E7
    Fue por tu culpa por que no valoraste
                 A              G#m         F#m
    fue por tu culpa por que siempre pensaste
                    Bm                        E7
    que me ibas a tener todo el tiempo a tus pies
                    A
    se acabo ya lo ves.
    
    
  • E|-0-0-4-4-2-2-2----2-0-0-4-2-2-2-
    B|-2-2-5-5-3-3-3----3-2-0-5-3-3-3-
    G|--------------------------------
    D|--------------------------------
    A|--------------------------------
    
    E|--------------------------------
    E|-2-0-0-2-0-0-0----0-0---2-0-0-
    B|-3-2-0-3-2-2-2----2-0-0-3-2-2-
    G|----------------------2-------
    D|------------------------------
    A|------------------------------
    
    E|------------------------------
    E|-2-4-5-5----0-0-0-2-2----2-2-2-0-0---------------------
    B|-3-5-7-7----0-0-2-3-3----3-3-3-2-0---------2-0---------
    G|-----------------------------------2-1-1-1-----2-1-----
    D|---------------------------------------------------4-2-
    A|-------------------------------------------------------
    E|-------------------------------------------------------
    
  • e|-3-3-7-7-5-5-5-5-3-1-7-5---5-3-1-5-3--3-3-3-1-0-5-3----|
    B|-5-5-8-8-6-6-6-6-5-3-8-6---6-5-3-6-5--5-5-5-3-1-6-5----|
    G|-------------------------6-----------------------------|
    D|-------------------------------------------------------|
    A|-------------------------------------------------------|
    E| ------------------------------------------------------|
    
    
    e|-3-3-3-5-5-7-5-3-3-5-5-5---1-3-5-3-1-0-----0-1-0-------3-1-0---0-|
    B|-5-5-5-6-6-8-6-5-5-6-6-6---3-5-6-5-3-1-----1-3-1-------5-3-1---1-|
    G|---------------------------------------3-3-------------------3---|
    D|---------------------------------------4-4-------0-0-0-------4---|
    A|-----------------------------------------------------------------|
    E|-----------------------------------------------------------------|
    
    Intro:
    Dm  G  C   Am  Dm  G  C
                      Dm
    Hasta el día de hoy
    G                  C
    
  • +
    ¡Colabora con nosotros!
    Envíanos tu versión de esta canción

Hasta el día de hoy Lyrics
Hasta el día de hoy
Yo te ame no lo niego
Hasta el dia de hoy
porque ya me canse de ser
Siempre tu juego
Que te perdone Dios
Porque yo, yo no puedo
Tu mataste el amor, ya no sigas llorando
Y otros brazos me están esperando
Fue por tu culpa porque no valoraste
Fue por tu culpa
Por que siempre pensaste
Que me ibas a tener todo el tiempo a tus pies
Se acabo ya lo vez
Fue por tu culpa y ya no me interesas
Fue por tu culpa y quedara en tu conciencia
Tu mataste el amor
Ya no sigas llorando
Y otros brazos me estan esperando
Musica:
Hasta el día de hoy
Yo te ame no lo niego
Hasta el dia de hoy
porque ya me canse de ser
Siempre tu juego
Que te perdone Dios
Porque yo, yo no puedo
Tu mataste el amor, ya no sigas llorando
Y otros brazos me están esperando
Fue por tu culpa porque no valoraste
Fue por tu culpa
Por que siempre pensaste
Que me ibas a tener todo el tiempo a tus pies
Se acabo ya lo vez
Fue por tu culpa y ya no me interesas
Fue por tu culpa y quedara en tu conciencia
Tu mataste el amor
Ya no sigas llorando
Y otros brazos me estan esperando
Fue por tu culpa y ya no me interesas
Fue por tu culpa y quedara en tu conciencia
Tu mataste el amor
Me llego buena suerte
Hasta el dia de hoy
Final:
Pues ahi esta espero que les guste y pasenla bien
!!!!!!y andele¡¡¡¡¡¡¡¡




[Hasta el día de hoy acordes][Hasta el día de hoy cifra]
© LaCuerda.net · legal notice · privacy · es · en · pt · contact us
DINAMICO