Guitar Chords » C »la Cuca » Mátame Antes (Tab)

Mátame Antes
la Cuca

Lyrics, Chords & Tabs for Guitar, Bass & Ukulele

  • Saludos!, esta es una rola muy shida del nuevo disco de la CUCA
    -----------------------------------------------------------------
    
    |||||||||||||||||||
    || x = palm mute ||
    || b = bend      ||
    || h = hammer-on ||
    || ~  = vibrato  ||
    |||||||||||||||||||
    
    INTRO
    
      x4
    1|--------------------------||
    2|--------------------------||
    3|------------------6-------||
    4|------------------6-7-6---||
    5|------4-7-6-4-4~--4-7-6---||
    6|---4-5-------7------5-4---||
    
    ¿Qué es lo que tienes en la boca? es esa palabra...
    
    1|--------------|--------------||
    2|--------------|--------------||
    3|---6----------|---6----------||
    4|---6--7--6-6--|---6--7--6-6--||
    5|---4--7--6-6--|---4--7--6-6--||
    6|------5--4-4--|------5--4-4--||
    
    ...no quiero que se abra tengo tanto miedo de su contenido
    
    1|--------------|--------------||
    2|--------------|--------------||
    3|---6----------|---6----------||
    4|---6--7--6-6--|---6--7--6-6--||
    5|---4--7--6-6--|---4--7--6-6--||
    6|------5--4-4--|------5--4-4--||
    
    ¿Qué es lo que está p
  • B bend
    () dejar sonando o nota fantasma
    . palmute
    
    INTRO
    en la cuarta vez se deja sonar las cuerdas
    1 I-----------------------------I     1 I-----------I
    2 I-----------------------------I     2 I-----------I
    3 I----------------------6------I X3  3 I--6--------I
    4 I----------------------6-7-6--I     4 I--6-7-6(6)-I
    5 I----------4-7-6-4-4v--4-7-6--I     5 I--4-7-6(6)-I
    6 I------/4-5-------7------5-4--I     6 I----5-4(4)-I
    
    1 VERSO
    ¿Qué es lo que tienes en la boca?…
    No quiero que se habra…
    
    1 I-----xxx-----------xxxxx-I
    2 I-----xxx-----------xxxxx-I
    3 I---6-xxx-----------xxxxx-I
    
  • ESTA ROLA ME PARECE QUE ES UNA DE LAS MEJORES DEL NUEVO DISCO DE LA CUCA
    CHEKENLA.......
    
    
    (intro)
    COMENZAMOS ACOMPAÑANDO EL INTRO DE GUITARRA TOCANDO SOLO 3 NOTAS
    ESTAS SE REPITEN CUATRO VECES.
    G-----------
    D-----------
    A--4--------
    E----5-4----
    
    QUE ES LO QUE...
    
    G-----------------------------------------------------------------
    D-----------------------------------------------------------------
    A--4-444----------4-444----------4-444----------4-444----3476434--
    E-------544-444444-----544-444444-----544-444444-----54-4---------
    
    QUIERO PEDIRTE UN FAVOOR........
    
    G---------------------------------------
    D---------------------------------------
    A-4-444444---------4-444----------------
    E---------5-5555555-----54-4444444------
    
    MATAME ANTES......
    
    NO ME RESIGNO A LA IDEA.......
    
    NO LO QUIERO IMAGINAAAAR....
    
    MATAME ANTES.........
    
    (REQUINTO)
    
    G---------1-----------------------------1----------------------
    D----22-1---121---22-4-------------22-1---121---22-4-----------
    A--4------------4---
  • +
    ¡Colabora con nosotros!
    Envíanos tu versión de esta canción






[Mátame Antes acordes][Mátame Antes cifra]
© LaCuerda.net · legal notice · privacy · es · en · pt · contact us
DINAMICO