Guitar Chords » C »El Cuarteto de Nos » Lo malo de ser bueno (Tab)

Lo malo de ser bueno
El Cuarteto de Nos

Lyrics, Chords & Tabs for Guitar, Bass & Ukulele

  • e-|--------------------------------|
    b-|--------------------------------|
    g-|--------------------------------|
    d-|--------------------------------|
    a-|-----------4--4-------------4---|
    e-|-5--5-4--4------0-1-2--2-4-4----|
    
    Intro: Riff
    
    Riff
    “La verdad es que no hay una verdad”,
    leí en una pared de la ciudad.
    ¿Habrá sido una virtud o casualidad?
    Y sentí inquietud de estar a merced de tanta sed de dualidad.
    
    C#m
    ¡Que barbaridad! Lo barato sale caro,
    Cm   C#m
    lo normal es lo raro. ¿Estaré sonado?
           Cm   C#m
    
  • e-|---------------------------------------------|
    b-|---------------------------------------------|
    g-|---------------------------------------------|
    d-|---------------------------------------------|
    a-|-----------3-4---4---------------------3-4---|
    e-|-5---5-4-----------0-0-0-1-2---2-4---4-------|
    
    Intro: Riff
    
    Riff
    “La verdad es que no hay una verdad”,
    leí en una pared de la ciudad.
    ¿Habrá sido una virtud o casualidad?
    Y sentí inquietud de estar a merced de tanta sed de dualidad.
    
    C#m
    ¡Que barbaridad! Lo barato sale caro,
    Cm   C#m
    lo normal es lo raro. ¿Estaré sonado?
           Cm   C#m
    
  • Les Traigo La Tab de la cancion
    "Lo Malo De Ser Bueno" Espero que les sirva...
    La Afinacion que utiliza es la Standard E,A,D,G (MI-LA-RE-SOL)
    ¡¡¡PRACTIQUE MUCHO!!!
    
    
    Riff Guitarra y bajo
    
    G|-------------------------------------|
    D|-------------------------------------|
    A|-----------4--4--------------------4-|
    E|-5--5-4--4------0--0-1-2--2-4--4-5---|
    
    Inicio: Riff
    
    La verdad es que no hay una verdad...
    G|-------------------------------------|
    D|-------------------------------------|
    A|-----------4--4--------------------4-|
    E|-5--5-4--4------0--0-1-2--2-4--4-5---|
    
    Que barbaridad! Lo barato sale caro...
    G|-----------------------|
    D|-----------------------|
    A|-2h4--2h4--2h4-2h4-----|
    E|-----------------------|
    
    Siempre hago lo que quiero, no lo puedo evitar...
    G|-------------------------------------|
    D|-------------------------------------|
    A|-----------4--4--------------------4-|
    E|-5--5-4--4------0--0-1-2--2-4--4-5---|
    
    es lo lindo de ser feo...
    G|-----------------------|
    D|---------
  • +
    ¡Colabora con nosotros!
    Envíanos tu versión de esta canción

Lo malo de ser bueno Lyrics
Riff
“La verdad es que no hay una verdad”,
leí en una pared de la ciudad.
¿Habrá sido una virtud o casualidad?
Y sentí inquietud de estar a merced de tanta sed de dualidad.
¡Que barbaridad! Lo barato sale caro,
lo normal es lo raro. ¿Estaré sonado?
Me visto despacio si estoy apurado. Amo ser odiado,
y tener la facha de un repetidor y la nota de un aprobado.
Riff
Siempre hago lo que quiero, no lo puedo evitar.
Tomo para olvidar que el doctor me prohibió tomar.
¡Y gracias a Dios soy ateo!
No consigo empleo por mi cara, creo,
es lo lindo de ser feo.
Pero si espero desespero, si quiero ver el partido entero.
¡Ya esta! ¡Cuanta ambigüedad!
Esta vida me va a matar.
Mi corazón vacío no soporta una ausencia más.
Y sé que dijo una vez
el nobel de la paz asesinado al caer:
“Es lo malo de ser bueno en este mundo cruel”.
Busco respuestas y encuentro preguntas.
Nadie contesta porque cuesta separarse de una mala junta.
Y no hay contradicción dije que me equivocaría.
Y como me equivoque tuve razón.
Riff
Perdón, si mi mente queda en blanco veo todo negro.
Escucho el himno a la alegría y me deprimo, no me alegro.
Como mi socio cuando dijo a su mujer preñada:
El ocio no me deja tiempo
para nada. Y con esa vil cuartada
se desembarazo de la embarazada .
¡Ya esta! ¡Cuanta ambigüedad!
Esta vida me va a matar.
Mi corazón vacío no soporta una ausencia más.
Y sé que dijo una vez
el nobel de la paz asesinado al caer:
“Es lo malo de ser bueno en este mundo cruel”.
Mundo cruel
Trae mala suerte ser supersticioso.
Acaricio un círculo y se vuelve un círculo vicioso.
Soy cauteloso, y juro seguro que todo es dudoso.
Riff
¿Cuantas veces dije no queriendo decir si?
¿Cuantas veces presentí el principio del fin?
¿Cuantas veces dije si queriendo decir no?
¡Es así! Como te digo una cosa
te digo la otra, qué horror,
hasta mis debilidades son más fuertes que yo.
Riff
¡Ya esta! ¡Cuanta ambigüedad!
Esta vida me va a matar.
Mi corazón vacío no soporta una ausencia más.
Y sé que dijo una vez el nobel de la paz asesinado al caer:
“Es lo malo de ser bueno en este mundo cruel”.
¡Ya esta! ¡Cuanta ambigüedad!
Esta vida me va a matar.
Mi corazón vacío no soporta una ausencia más.
Y sé que dijo una vez
el nobel de la paz asesinado al caer:
“Es lo malo de ser bueno en este mundo cruel”.
Es lo malo de ser bueno en este mundo cruel.
Es lo malo de ser bueno en este mundo cruel.
[En la parte del Riff, pueden tocar las mismas notas que el estribillo
y queda bien igual y en la parte que es C#m, Cm es un solo golpe por nota,
en el medio queda en silencio]




[Lo malo de ser bueno acordes][Lo malo de ser bueno cifra]
© LaCuerda.net · legal notice · privacy · es · en · pt · contact us
DINAMICO