Guitar Chords » C »Color Humano » Cosas Rústicas (Tab)

Cosas Rústicas
Color Humano

Lyrics, Chords & Tabs for Guitar, Bass & Ukulele

  • G# Am           C           Bb
         Qué locura,  la simpleza
    G F# F       D7   Bb        G
          Que está cruzando el río
    
    Viendo el agua de cerezas
    Esas cosas, esas cosas ya son mías
    
    En mi coto de caza nena
    Puedes correr desnuda entre hojas de otoño
    
    Ven el agua que despide olores dulces
    Cubren tu cuerpo mis resinas suaves
    Am               C
      Cosas rústicas,  cosas rústicas
    Dm      Bb     E7/#9      Am
      Hacen al tiempo    por mí
    
    Cosas rústicas...
    
    
  • e|--------------------------------|
    B|--------------------------------|
    G|--------------------------------|
    D|-------5-5h7p5---5--------------|
    A|-5-5h7---------7---7-3----------|
    E|-----------------------3--------|
    
    Riff 2 (*2)
    
    e|--------------------------------|
    B|-1-1h3p1------------------------|
    G|--------------------------------|
    D|--------------------------------|
    A|--------------------------------|
    E|--------------------------------|
    
    Riff 3 (*3)
    
    e|--------------------------------|
    B|--------------------------------|
    
  • +
    ¡Colabora con nosotros!
    Envíanos tu versión de esta canción

Cosas Rústicas Lyrics
Qué locura, la simpleza
Que está cruzando el río
Viendo el agua de cerezas
Esas cosas, esas cosas ya son mías
En mi coto de caza nena
Puedes correr desnuda entre hojas de otoño
Ven el agua que despide olores dulces
Cubren tu cuerpo mis resinas suaves
Cosas rústicas, cosas rústicas
Hacen al tiempo por mí
Cosas rústicas...
En mi coto...




[Cosas Rústicas acordes][Cosas Rústicas cifra]
© LaCuerda.net · legal notice · privacy · es · en · pt · contact us
DINAMICO