Guitar Chords » C »Coda » Si te tuviera aqui (Tab)

Si te tuviera aqui
Coda

Lyrics, Chords & Tabs for Guitar, Bass & Ukulele

  • MI-LA-DO#m-SOLm-LA
    
    fill:1
       MI         LA      DO#m    SOLm    LA
    3:------------------------------------9------9--
    2:--10-9-7-9-10-9-7-9-10-9-7-9-5-10-9---10-9----
    
    fill:2
        DO#m                         SOLm
    6:--9-9-7-4-7-9---9-9-7-4-7-9---4-4-7-4-7-9---4-4-7-4-7
    5:--------------7-------------7-------------7----------
    
    LA-MI
    
    los versos llevan el fill:2 y termina con los  acordes de la y mi 
    
    fill:2(verso)
    mi almohada no puede vencer 
    la melancolia de mi padecer
    y yo como un iluso solo te dibujo en mi mente
    
  • D#  G#  Cm  Gm  G#  A#
    
    D#
    oh oh oh oh
    G#
    oh oh oh oh
    Cm    Gm    G#  A#
    oh oh oh oh
    
        C                                         F
    e|--------------------------------------------------------|
    B|--------------------------------------------------------|
    G|--------------------------------------------------------|
    D|--------------1-------------1-------------1-3-3-1---3---|
    A|--3-3-1---1-3---3-3-1---1-3---3-3-1---1-3---------3-----|
    E|--------3-------------3-------------3-------------------|
    
    
    
          Cm (riff 1)
    
  • +
    ¡Colabora con nosotros!
    Envíanos tu versión de esta canción

Si te tuviera aqui Lyrics
fill:1
fill:2
los versos llevan el fill:2 y termina con los acordes de la y mi
fill:2(verso)
mi almohada no puede vencer
la melancolia de mi padecer
y yo como un iluso solo te dibujo en mi mente
fill:2(verso)
moriria por tener
entre tus brazos tu sue*os tu piel
y por creer que estaras ahi parasiempre
haora le digo a mi soledad que
si te tuviera aqui
envenenaria tu aliento
con mis besos y con todo mi cuerpo
ooh,ooh, si te tuviera aqui
ooh,ooh, aqui
fill:2(verso)
tomaria tu cintura
entre salvaje y delicadamente
por estrecharte con todo el deseo de mi piel
fill:2(verso)
y perdido en tu figura
te haria sentir como ahogaria
esta agonia que estoy pasando sin ti (sin verte)
ahora le digo a mi soledad que
uuh, te entregaria mi vida
para que me sintieras dentro de ti
ooh,ooh si te tuviera aqui
ooh,ooh aqui
si te tuviera aqui
si te tuviera aqui
si te tuviera aqui
esa es toda la rola
saludos a todos mis familiares de puebla
especialmente a los allende, martinez, y moreno
y a una chava fresa que no me cree
para (lucero sanchez jimenez)




[Si te tuviera aqui acordes][Si te tuviera aqui cifra]
© LaCuerda.net · legal notice · privacy · es · en · pt · contact us
DINAMICO