Guitar Chords » C »Los Claxons » Flores en febrero (Tab)

Flores en febrero
Los Claxons

Lyrics, Chords & Tabs for Guitar, Bass & Ukulele

  • A
    Como lluvia de la capital,
    Bm
    como recreo antes de un final,
    D
    como abrazo de año nuevo,
    A
    como flores en febrero.
    
    A Bm D A
    
    A
    Perdón no pude controlarme
    Bm
    aprendí a fallar en el peor instante
    D
    y ahí estabas,
    A
    ahí estabas
    
    
  • LA
    
         6----------------------
         5----------------------
         4----------------------
         3-6-4-2-2h6------------
         2----------------------
         1----------------------
    
    SIm
    
         6----------------------
         5----------------------
         4----------------------
         3-6-4-2-2h6------------
         2----------------------
         1----------------------
    
    RE
         6----------------------
    
  •   A
    e|--------------------------|
    B|--3/5-3--2----------------|
    G|--4/6-4--2--2h4p2---------|
    D|-------------------4-2----|
    A|--------------------------|
    E|--------------------------|
    
      Bm
    e|--------------------------|
    B|--3/5-3--2----------------|
    G|--4/6-4--2--2h4p2---------|
    D|-------------------4-2----|
    A|--------------------------|
    E|--------------------------|
    
      D
    e|--------------------------|
    B|--------------------------|
    G|--------------------------|
    
  • +
    ¡Colabora con nosotros!
    Envíanos tu versión de esta canción

Flores en febrero Lyrics
Como lluvia de la capital,
como recreo antes de un final,
como abrazo de año nuevo,
como flores en febrero.
Perdón no pude controlarme
aprendí a fallar en el peor instante
y ahí estabas,
ahí estabas
Y no, no siempre soy lo que aparento
por fuera soy más grande,
contigo caigo por dentro
Pronto pasó, es que llegaste
Como lluvia de la capital,
como recreo antes de un final,
como abrazo de año nuevo,
como flores en febrero,
como relámpago, como un avión,
tú llegaste
y yo encontré el amor.
Perdón, no batallas en sonreír,
no supe que mas decir sin saber tu nombre
un beso te di.
Es hoy el día que siempre había esperado,
los libros me lo habían contado,
te he buscado tanto.
Pronto pasó, es que llegaste.
Como lluvia de la capital,
como recreo antes de un final,
como abrazo de año nuevo,
como flores en febrero,
como relámpago, como un avión,
tú llegaste
y yo encontré el amor.
Como lluvia de la capital,
como recreo antes de un final,
como abrazo en año nuevo,
como flores en febrero,
como relámpago, como un avión,
tú llegaste
y encontré el amor.
Taraptaptapta
Taraptaptapta
tú llegaste
y yo encontré, y encontré.
tú llegaste




[Flores en febrero acordes][Flores en febrero cifra]
© LaCuerda.net · legal notice · privacy · es · en · pt · contact us
DINAMICO