Guitar Chords » C »Chetes » Efecto Dominó (Tab)

Efecto Dominó
Chetes

Lyrics, Chords & Tabs for Guitar, Bass & Ukulele

  •    E D?? D  Bm  G  C  G#  A#
    e----------------------------
    B-----5------3---------------
    G--1--7--7---4--4--4---5-----
    D--2--6--7---4--5--4---6---8-
    A--2--X--5---2--5--3---6---8-
    E-----5--5---2--3--3---4---6-
    
    ------------------
    
    
        intro
        D      D??
    e--------------------------
    B----------5---------------
    G---7------7---------------
    D---7------6---------------
    A---x------X----------------
    E---5------5---------------
    
    
  • +
    ¡Colabora con nosotros!
    Envíanos tu versión de esta canción

Efecto Dominó Lyrics
estar en control solo es una idea
que te hace sentir feliz
mi preocupacion solo me envenena
no hay forma de predecir
que sera de mi
que sera de mi
parece que todo se dio
en automatico
como un efecto domino
asi como llega el amor
sin anticipacion
como un efecto domino
Verso:
en cada carretera hay una desviacion
te toman por sorpresa y pierdes el control
eventos en cadena cambiando sin razon
y es cuando te preguntas
que es lo que sera de ti
que sera de ti
parece que todo se dio
en automatico
como un efecto domino
asi como llega el amor
sin anticipacion
como un efecto domino
mira hacia donde te llevo
como un efecto domino
hacia donde me
llevara hacia donde me
llevara hacia donde me
llevara me llevara
parece que todo se dio
en automatico
como un efecto domino
asi como llega el amor
sin anticipacion
como un efecto domino
mira hacia donde te llevo
mira hacia donde te llevo
como un efecto domino
como un efecto domino
me gusta mucho efecto domino
el disco esta muy bueno...
se la dedico a todas las personas
que con un acto se les genera
una situacion de gran magnitud
ya sea buena o mala...
nuestros actos siempre van seguidos
de una consecuencia inevitable....




[Efecto Dominó acordes][Efecto Dominó cifra]
© LaCuerda.net · legal notice · privacy · es · en · pt · contact us
DINAMICO