Guitar Chords » C »Chayanne » Atado a tu amor (Tab)

Atado a tu amor
Chayanne

Lyrics, Chords & Tabs for Guitar, Bass & Ukulele

  • G                D                   Em
     No llames la atención ni sigas provocándome
     C                    G               D
     Que ya voy comprendiendo cada movimiento
     G                 D              Em
     Me gusta lo que haces para conquistarme
               Bm               C    - Am7
     Para seducirme, para enamorarme
                      D
     Y vas causando efecto.
    
     Am              C/A                     D
     No sabes como me entretienen tus locuras
                    D7                 G
     Y que para verte invento mil excusas
                   D                Em
     Has dejado en jaque todos mis sentidos
               C                  Am7
     Pones a prueba el motor que genera los latidos
     D
    
  •  G                D                   Em     
     No llames la atención ni sigas provocándome
     C                    G               D
     Que ya voy comprendiendo cada movimiento
     G                 D              Em   
     Me gusta lo que haces para conquistarme
                                 C    - Am7
     Para seducirme, para enamorarme
                      D
     Y vas causando efecto.
    
     Em                                   D
     No sabes como me entretienen tus locuras
                                     G
     Y que para verte invento mil excusas
                   D                Em 
     Has dejado en jaque todos mis sentidos
               C                  Am7                
     Pones a prueba el motor que genera los latidos 
     D
    
  • -----------------------------------
    Casi en la zona de guitarra puede ser arpegio
    como se dice pique. rasgueo.
    
    No se por que se olvidaron de la Bm. E
    notas exactas.
    me gusat en el coro de E, Am
    
    bueno
    aqui esta
    *STARS"
    _________________________________
    
      Notas:
    Emmej4 000570
    Cmej4  055500
    G7     100023
    
    
    
    
  •  SOL                RE/FA#            MIm
     No llames la atención ni sigas provocándome
     DO                  SOL/SI           LAm  DO/SOL
     Que ya voy comprendiendo cada movimiento
     RE/FA#                             SOL
     Me gusta lo que haces para conquistarme
               RE/FA#              DO
     Para seducirme, para enamorarme
       LAm7            RE     RE2 -RE
     Y vas causando efecto.
    
     LAm             DO/SOL
     No sabes como me entretienen tus locuras
     RE/FA#                               SOL
     Y que para verte invento mil excusas
                    RE/FA#            DO     SOL/SI
     Has dejado en jaque todos mis sentidos
                LAm       DO/SOL       LAm7
     Pones a prueba el motor que genera los latidos
     RE
    
  • Este es el intro de la canción y leva un ritmo lento
    
    
    7---7---5---7---8---5---7---7---5---7---5---2---3---3--
    8---8---7---8--10---7---8---8---7---8---7---3---5---5--
    -------------------------------------------------------
    -------------------------------------------------------
    -------------------------------------------------------
    -------------------------------------------------------
    
    
    
    2---7---3-------0-------0-------0----------------------
    3---8---5---3---1---3---1---3---1---3---1---0---3------
    ------------4-------4-------4-------4---2---1---4------
    -------------------------------------------------------
    -------------------------------------------------------
    -------------------------------------------------------
  • 7---7---5---7---8---5---7---7---5---7---5---2---3---3--
    8---8---7---8--10---7---8---8---7---8---7---3---5---5--
    -------------------------------------------------------------
    -------------------------------------------------------------
    -------------------------------------------------------------
    -------------------------------------------------------------
    
    
    
    2---3---2---------------------------------------------
    3---5---3---0---1---0---1---0---1---0-----------------
    ----------------------------------------2---0---2-----------
    ------------------------------------------------------------
    ------------------------------------------------------------
    ------------------------------------------------------------
    
    
    
    -------------------------------------------------------
    -------------------------------------------------------
    
  • +
    ¡Colabora con nosotros!
    Envíanos tu versión de esta canción

Atado a tu amor Lyrics
No llames la atención ni sigas provocándome
Que ya voy comprendiendo cada movimiento
Me gusta lo que haces para conquistarme
Para seducirme, para enamorarme
Y vas causando efecto.
No sabes como me entretienen tus locuras
Y que para verte invento mil excusas
Has dejado en jaque todos mis sentidos
Pones a prueba el motor que genera los latidos
de cada ilusion
Mira lo que has hecho que he caido preso
(En tu cuerpo y en tu cuerpo y en tu mente)
En un agujero de tu corazón
(En todo estás presente)
Y la libertad, te juro, no la quiero
Si estoy contigo... Déjame atado a este amor...
atado a este amooooor
Acabo de pasar la linea de tu encaaanto
Donde sólo mirarte es un paisaje nuevo
Y tejes las cadenas que amarran mi sexo
Que endulzan mi alma que tienen mi mente
Y someten mi cuerpo
Y para qué dejar que pase y pase el tiempo
Si tú y yo preferimos comernos a besos
Has dejado en jaque todos mis sentidos
Pones a prueba el motor que genera los latidos
de cada ilusion
Mira lo que has hecho que he caido preso
(En tu cuerpo y en tu cuerpo y en tu mente)
En un agujero de tu corazón
(En todo estás presente)
Y la libertad, te juro, no la quiero
Si estoy contigo... Déjame atado a este amor...
atado a este amor
Es importante es urgente ah ahhh, ahhh
Que te quedes a mi lado
Yo inventare los motivos que sean necesarios
Para estar cerca de ti
Mira lo que has hecho que he caido preso
(En tu cuerpo y en tu cuerpo y en tu mente)
En un agujero de tu corazón
(En todo estás presente)
Y la libertad, te juro, no la quiero
Si estoy contigo... Déjame atado a este amor...
atado a este amor (BIS)
los acordes de entrada son los que estan en la trans
cricciòn que està en La Mayor (por error)
ahora si podràn tocarla completa.saludos.




[Atado a tu amor acordes][Atado a tu amor cifra]
© LaCuerda.net · legal notice · privacy · es · en · pt · contact us
DINAMICO